  0
SECTION
  2
HEADER
  9
$ACADVER
  1
AC1009
  9
$INSBASE
 10
0.0
 20
0.0
 30
0.0
  9
$EXTMIN
 10
-800.0
 20
-1203.7586094705
 30
0.0
  9
$EXTMAX
 10
999.99549999999988
 20
1471.779834999998
 30
0.0
  9
$LIMMIN
 10
0.0
 20
0.0
  9
$LIMMAX
 10
0.0
 20
0.0
  9
$ORTHOMODE
 70
     0
  9
$REGENMODE
 70
     1
  9
$FILLMODE
 70
     1
  9
$QTEXTMODE
 70
     0
  9
$MIRRTEXT
 70
     1
  9
$DRAGMODE
 70
     2
  9
$LTSCALE
 40
50.799999999999997
  9
$OSMODE
 70
   167
  9
$ATTMODE
 70
     1
  9
$TEXTSIZE
 40
0.0
  9
$TRACEWID
 40
1.0
  9
$TEXTSTYLE
  7
STANDARD
  9
$CLAYER
  8
0
  9
$CELTYPE
  6
CONTINUOUS
  9
$CECOLOR
 62
   256
  9
$DIMSCALE
 40
1.0
  9
$DIMASZ
 40
0.18
  9
$DIMEXO
 40
0.0625
  9
$DIMDLI
 40
0.38
  9
$DIMRND
 40
0.0
  9
$DIMDLE
 40
0.0
  9
$DIMEXE
 40
0.18
  9
$DIMTP
 40
0.0
  9
$DIMTM
 40
0.0
  9
$DIMTXT
 40
0.18
  9
$DIMCEN
 40
0.09
  9
$DIMTSZ
 40
0.0
  9
$DIMTOL
 70
     0
  9
$DIMLIM
 70
     0
  9
$DIMTIH
 70
     1
  9
$DIMTOH
 70
     1
  9
$DIMSE1
 70
     0
  9
$DIMSE2
 70
     0
  9
$DIMTAD
 70
     0
  9
$DIMZIN
 70
     0
  9
$DIMBLK
  1

  9
$DIMASO
 70
     1
  9
$DIMSHO
 70
     1
  9
$DIMPOST
  1

  9
$DIMAPOST
  1

  9
$DIMALT
 70
     0
  9
$DIMALTD
 70
     2
  9
$DIMALTF
 40
25.399999999999999
  9
$DIMLFAC
 40
1.0
  9
$DIMTOFL
 70
     0
  9
$DIMTVP
 40
0.0
  9
$DIMTIX
 70
     0
  9
$DIMSOXD
 70
     0
  9
$DIMSAH
 70
     0
  9
$DIMBLK1
  1

  9
$DIMBLK2
  1

  9
$DIMSTYLE
  2
STANDARD
  9
$DIMCLRD
 70
     0
  9
$DIMCLRE
 70
     0
  9
$DIMCLRT
 70
     0
  9
$DIMTFAC
 40
1.0
  9
$DIMGAP
 40
0.09
  9
$LUNITS
 70
     2
  9
$LUPREC
 70
     4
  9
$SKETCHINC
 40
0.1
  9
$FILLETRAD
 40
0.0
  9
$AUNITS
 70
     0
  9
$AUPREC
 70
     0
  9
$MENU
  1
acad
  9
$ELEVATION
 40
0.0
  9
$PELEVATION
 40
0.0
  9
$THICKNESS
 40
0.0
  9
$LIMCHECK
 70
     0
  9
$BLIPMODE
 70
     0
  9
$CHAMFERA
 40
0.0
  9
$CHAMFERB
 40
0.0
  9
$SKPOLY
 70
     0
  9
$TDCREATE
 40
2452516.6193518508
  9
$TDUPDATE
 40
2452516.6531065968
  9
$TDINDWG
 40
0.0003420139
  9
$TDUSRTIMER
 40
0.0003420139
  9
$USRTIMER
 70
     1
  9
$ANGBASE
 50
0.0
  9
$ANGDIR
 70
     0
  9
$PDMODE
 70
     1
  9
$PDSIZE
 40
-2.0
  9
$PLINEWID
 40
0.0
  9
$COORDS
 70
     0
  9
$SPLFRAME
 70
     0
  9
$SPLINETYPE
 70
     6
  9
$SPLINESEGS
 70
     8
  9
$ATTDIA
 70
     0
  9
$ATTREQ
 70
     1
  9
$HANDLING
 70
 22529
  9
$HANDSEED
  5
E9A
  9
$SURFTAB1
 70
     6
  9
$SURFTAB2
 70
     6
  9
$SURFTYPE
 70
     6
  9
$SURFU
 70
     6
  9
$SURFV
 70
     6
  9
$UCSNAME
  2

  9
$UCSORG
 10
0.0
 20
0.0
 30
0.0
  9
$UCSXDIR
 10
1.0
 20
0.0
 30
0.0
  9
$UCSYDIR
 10
0.0
 20
1.0
 30
0.0
  9
$PUCSNAME
  2

  9
$PUCSORG
 10
0.0
 20
0.0
 30
0.0
  9
$PUCSXDIR
 10
1.0
 20
0.0
 30
0.0
  9
$PUCSYDIR
 10
0.0
 20
1.0
 30
0.0
  9
$USERI1
 70
     0
  9
$USERI2
 70
     0
  9
$USERI3
 70
     0
  9
$USERI4
 70
     0
  9
$USERI5
 70
     0
  9
$USERR1
 40
0.0
  9
$USERR2
 40
0.0
  9
$USERR3
 40
0.0
  9
$USERR4
 40
0.0
  9
$USERR5
 40
0.0
  9
$WORLDVIEW
 70
     1
  9
$SHADEDGE
 70
     3
  9
$SHADEDIF
 70
    70
  9
$TILEMODE
 70
     1
  9
$MAXACTVP
 70
    16
  9
$PLIMCHECK
 70
     0
  9
$PEXTMIN
 10
1.0000000000000000E+020
 20
1.0000000000000000E+020
 30
1.0000000000000000E+020
  9
$PEXTMAX
 10
-1.0000000000000000E+020
 20
-1.0000000000000000E+020
 30
-1.0000000000000000E+020
  9
$PLIMMIN
 10
0.0
 20
0.0
  9
$PLIMMAX
 10
12.0
 20
9.0
  9
$UNITMODE
 70
     0
  9
$VISRETAIN
 70
     0
  9
$PLINEGEN
 70
     1
  9
$PSLTSCALE
 70
     0
  0
ENDSEC
  0
SECTION
  2
TABLES
  0
TABLE
  2
VPORT
 70
     2
  0
VPORT
  2
*ACTIVE
 70
     0
 10
0.0
 20
0.0
 11
1.0
 21
1.0
 12
99.997756486038725
 22
134.01554212313741
 13
0.0
 23
0.0
 14
1.0
 24
1.0
 15
0.0
 25
0.0
 16
0.0
 26
0.0
 36
1.0
 17
0.0
 27
0.0
 37
0.0
 40
2866.0360257697639
 41
1.664912280701754
 42
50.0
 43
0.0
 44
0.0
 50
0.0
 51
0.0
 71
     0
 72
   100
 73
     1
 74
     1
 75
     0
 76
     0
 77
     0
 78
     0
  0
ENDTAB
  0
TABLE
  2
LTYPE
 70
    13
  0
LTYPE
  2
CONTINUOUS
 70
     0
  3
Solid line
 72
    65
 73
     0
 40
0.0
  0
LTYPE
  2
STYLE_01
 70
     0
  3

 72
    65
 73
     2
 40
0.4166412353515625
 49
0.208282470703125
 49
-0.2083587646484375
  0
LTYPE
  2
STYLE_02
 70
     0
  3

 72
    65
 73
     2
 40
0.694427490234375
 49
0.4860687255859375
 49
-0.2083587646484375
  0
LTYPE
  2
STYLE_03
 70
     0
  3

 72
    65
 73
     2
 40
1.25
 49
1.0416412353515621
 49
-0.2083587646484375
  0
LTYPE
  2
STYLE_04
 70
     0
  3

 72
    65
 73
     2
 40
1.5277099609375
 49
1.319427490234375
 49
-0.208282470703125
  0
LTYPE
  2
STYLE_05
 70
     0
  3

 72
    65
 73
     2
 40
0.208282470703125
 49
0.069427490234375
 49
-0.13885498046875
  0
LTYPE
  2
STYLE_06
 70
     0
  3

 72
    65
 73
     4
 40
1.0416412353515621
 49
0.625
 49
-0.208282470703125
 49
0.069427490234375
 49
-0.1389312744140625
  0
LTYPE
  2
STYLE_07
 70
     0
  3

 72
    65
 73
     6
 40
1.875
 49
0.625
 49
-0.208282470703125
 49
0.625
 49
-0.2083587646484375
 49
0.069427490234375
 49
-0.1389312744140625
  0
LTYPE
  2
STYLE_08
 70
     0
  3

 72
    65
 73
     6
 40
1.25
 49
0.625
 49
-0.208282470703125
 49
0.069427490234375
 49
-0.1389312744140625
 49
0.069427490234375
 49
-0.1389312744140625
  0
LTYPE
  2
STYLE_09
 70
     0
  3

 72
    65
 73
     4
 40
5.0
 49
3.75
 49
-0.2777862548828125
 49
0.694427490234375
 49
-0.2777862548828125
  0
LTYPE
  2
STYLE_10
 70
     0
  3

 72
    65
 73
     6
 40
5.9375
 49
3.75
 49
-0.2777862548828125
 49
0.694427490234375
 49
-0.2777862548828125
 49
0.625
 49
-0.3125
  0
LTYPE
  2
STYLE_11
 70
     0
  3

 72
    65
 73
     4
 40
0.7500000000000001
 49
0.3750000000000001
 49
-0.1875
 49
0.0005
 49
-0.187
  0
LTYPE
  2
STYLE_12
 70
     0
  3

 72
    65
 73
     2
 40
0.2812500000000001
 49
0.1875
 49
-0.09375
  0
ENDTAB
  0
TABLE
  2
LAYER
 70
    10
  0
LAYER
  2
0
 70
     0
 62
     7
  6
CONTINUOUS
  0
LAYER
  2
HIBINO-BASE
 70
     0
 62
     7
  6
CONTINUOUS
  0
LAYER
  2
SIDE-DOWN-18_5
 70
     0
 62
     7
  6
CONTINUOUS
  0
LAYER
  2
SIED-UP18_5
 70
     0
 62
     7
  6
CONTINUOUS
  0
LAYER
  2
TOP22
 70
     0
 62
     7
  6
CONTINUOUS
  0
LAYER
  2
BRACKET
 70
     0
 62
     7
  6
CONTINUOUS
  0
LAYER
  2
PATTERN_FILL
 70
     0
 62
     7
  6
CONTINUOUS
  0
LAYER
  2
SPEC
 70
     0
 62
     7
  6
CONTINUOUS
  0
LAYER
  2
DIMNSIONS
 70
     0
 62
     7
  6
CONTINUOUS
  0
LAYER
  2
DATA
 70
     0
 62
     7
  6
CONTINUOUS
  0
ENDTAB
  0
TABLE
  2
STYLE
 70
     2
  0
STYLE
  2
STANDARD
 70
     0
 40
0.0
 41
1.0
 50
0.0
 71
     0
 42
0.0
  3
txt
  4
BIGFONT.SHX
  0
ENDTAB
  0
TABLE
  2
VIEW
 70
     0
  0
ENDTAB
  0
TABLE
  2
UCS
 70
     0
  0
ENDTAB
  0
TABLE
  2
APPID
 70
     1
  0
APPID
  2
ACAD
 70
     0
  0
ENDTAB
  0
TABLE
  2
DIMSTYLE
 70
     1
  0
DIMSTYLE
  2
STANDARD
 70
     0
  3

  4

  5

  6

  7

 40
1.0
 41
0.18
 42
0.0625
 43
0.38
 44
0.18
 45
0.0
 46
0.0
 47
0.0
 48
0.0
140
0.18
141
0.09
142
0.0
143
25.399999999999999
144
1.0
145
0.0
146
1.0
147
0.09
 71
     0
 72
     0
 73
     1
 74
     1
 75
     0
 76
     0
 77
     0
 78
     0
170
     0
171
     2
172
     0
173
     0
174
     0
175
     0
176
     0
177
     0
178
     0
  0
ENDTAB
  0
ENDSEC
  0
SECTION
  2
BLOCKS
  0
BLOCK
  8
0
  2
$MODEL_SPACE
 70
     0
 10
0.0
 20
0.0
 30
0.0
  3
$MODEL_SPACE
  1

  0
ENDBLK
  5
9D0
  8
0
  0
BLOCK
 67
     1
  8
0
  2
$PAPER_SPACE
 70
     0
 10
0.0
 20
0.0
 30
0.0
  3
$PAPER_SPACE
  1

  0
ENDBLK
  5
9CC
 67
     1
  8
0
  0
BLOCK
  8
PATTERN_FILL
  2
*U2
 70
     1
 10
0.0
 20
0.0
 30
0.0
  3
*U2
  1

  0
LINE
  5
9F5
  8
PATTERN_FILL
  6
CONTINUOUS
 62
     7
 10
333.4007532643854
 20
396.82069833654248
 30
0.0
 11
336.82019833654277
 21
393.40125326438522
 31
0.0
  0
LINE
  5
9F6
  8
PATTERN_FILL
  6
CONTINUOUS
 62
     7
 10
332.36091787439381
 20
396.4463201641608
 30
0.0
 11
336.4458201641612
 21
392.36141787439362
 31
0.0
  0
LINE
  5
9F7
  8
PATTERN_FILL
  6
CONTINUOUS
 62
     7
 10
331.36091787439381
 20
396.03210660178797
 30
0.0
 11
336.0316066017881
 21
391.36141787439362
 31
0.0
  0
LINE
  5
9F8
  8
PATTERN_FILL
  6
CONTINUOUS
 62
     7
 10
330.64556091380848
 20
395.33325000000002
 30
0.0
 11
335.33275000000009
 21
390.64606091380853
 31
0.0
  0
LINE
  5
9F9
  8
PATTERN_FILL
  6
CONTINUOUS
 62
     7
 10
330.23134735143549
 20
394.33325000000002
 30
0.0
 11
334.33274999999998
 21
390.23184735143542
 31
0.0
  0
LINE
  5
9FA
  8
PATTERN_FILL
  6
CONTINUOUS
 62
     7
 10
329.81713378906147
 20
393.33325000000082
 30
0.0
 11
333.33275000000009
 21
389.81763378906231
 31
0.0
  0
LINE
  5
9FB
  8
PATTERN_FILL
  6
CONTINUOUS
 62
     7
 10
330.81713378906159
 20
390.91903643762771
 30
0.0
 11
330.91853643762801
 21
390.81763378906118
 31
0.0
  0
ENDBLK
  5
9FC
  8
PATTERN_FILL
  0
BLOCK
  8
PATTERN_FILL
  2
*U3
 70
     1
 10
0.0
 20
0.0
 30
0.0
  3
*U3
  1

  0
LINE
  5
9FF
  8
PATTERN_FILL
  6
CONTINUOUS
 62
     7
 10
349.0172190297356
 20
190.22495611231111
 30
0.0
 11
346.89080662421679
 21
192.3510495958339
 31
0.0
  0
LINE
  5
A00
  8
PATTERN_FILL
  6
CONTINUOUS
 62
     7
 10
350.59264476718488
 20
190.06387417277611
 30
0.0
 11
346.72932946316132
 21
193.92661005193159
 31
0.0
  0
LINE
  5
A01
  8
PATTERN_FILL
  6
CONTINUOUS
 62
     7
 10
351.59267583542601
 20
190.47810060403609
 30
0.0
 11
347.14353015977679
 21
194.9265789912447
 31
0.0
  0
LINE
  5
A02
  8
PATTERN_FILL
  6
CONTINUOUS
 62
     7
 10
352.52978139667982
 20
190.9552431046373
 30
0.0
 11
347.62034744561322
 21
195.8639407326508
 31
0.0
  0
LINE
  5
A03
  8
PATTERN_FILL
  6
CONTINUOUS
 62
     7
 10
352.94398209329529
 20
191.9552120439505
 30
0.0
 11
348.62037851385458
 21
196.27816716391101
 31
0.0
  0
LINE
  5
A04
  8
PATTERN_FILL
  6
CONTINUOUS
 62
     7
 10
353.35818278991059
 20
192.95518098326369
 30
0.0
 11
349.62040958209599
 21
196.69239359517081
 31
0.0
  0
LINE
  5
A05
  8
PATTERN_FILL
  6
CONTINUOUS
 62
     7
 10
352.89368447681528
 20
194.8337171439091
 30
0.0
 11
351.49898505341872
 21
196.22820738853949
 31
0.0
  0
ENDBLK
  5
A06
  8
PATTERN_FILL
  0
ENDSEC
  0
SECTION
  2
ENTITIES
  0
POLYLINE
  5
A07
  8
HIBINO-BASE
  6
CONTINUOUS
 62
     7
 66
     1
 10
0.0
 20
0.0
 30
0.0
  0
VERTEX
  5
E94
  8
HIBINO-BASE
  6
CONTINUOUS
 62
     7
 10
-800.0
 20
1471.779834999998
 30
0.0
  0
VERTEX
  5
E95
  8
HIBINO-BASE
  6
CONTINUOUS
 62
     7
 10
999.99549999999988
 20
1471.779834999998
 30
0.0
  0
VERTEX
  5
E96
  8
HIBINO-BASE
  6
CONTINUOUS
 62
     7
 10
999.99549999999988
 20
-1128.213665
 30
0.0
  0
VERTEX
  5
E97
  8
HIBINO-BASE
  6
CONTINUOUS
 62
     7
 10
-800.0
 20
-1128.213665
 30
0.0
  0
VERTEX
  5
E98
  8
HIBINO-BASE
  6
CONTINUOUS
 62
     7
 10
-800.0
 20
1471.779834999998
 30
0.0
  0
SEQEND
  5
E99
  8
HIBINO-BASE
  6
CONTINUOUS
 62
     7
  0
TEXT
  5
A0E
  8
HIBINO-BASE
 62
     7
 10
-728.16017960000011
 20
-1192.300304783
 30
0.0
 40
34.37491406249999
  1
Hibino Corporation
 41
0.8
 11
-728.16017960000011
 21
-1157.9253907205
 31
0.0
 73
     3
  0
TEXT
  5
A0F
  8
HIBINO-BASE
 62
     7
 10
587.49653124999975
 20
-1103.2137274999991
 30
0.0
 40
21.4843212890625
  1
N.Sasaki
 41
0.8
 11
587.49653124999975
 21
-1081.729406210937
 31
0.0
 73
     3
  0
LINE
  5
A10
  8
HIBINO-BASE
  6
CONTINUOUS
 62
     7
 10
99.997750000000195
 20
-1028.213914999998
 30
0.0
 11
999.99549999999988
 21
-1028.213914999998
 31
0.0
  0
TEXT
  5
A11
  8
HIBINO-BASE
 62
     7
 10
579.99654999999984
 20
-1053.2138524999989
 30
0.0
 40
21.4843212890625
  1
DRAWN
 41
0.8
 11
579.99654999999984
 21
-1031.729531210937
 31
0.0
 73
     3
  0
LINE
  5
A12
  8
HIBINO-BASE
  6
CONTINUOUS
 62
     7
 10
99.997750000000195
 20
-903.21422749999988
 30
0.0
 11
999.99549999999988
 21
-903.21422749999988
 31
0.0
  0
TEXT
  5
A13
  8
HIBINO-BASE
 62
     7
 10
329.99717500000031
 20
-1053.2138524999989
 30
0.0
 40
21.4843212890625
  1
DATE
 41
0.8
 11
329.99717500000031
 21
-1031.729531210937
 31
0.0
 73
     3
  0
TEXT
  5
A14
  8
HIBINO-BASE
 62
     7
 10
337.49715624999982
 20
-1103.2137274999991
 30
0.0
 40
21.4843212890625
  1
'99.10.
 41
0.8
 11
337.49715624999982
 21
-1081.729406210937
 31
0.0
 73
     3
  0
LINE
  5
A15
  8
HIBINO-BASE
  6
CONTINUOUS
 62
     7
 10
99.997750000000195
 20
-1128.213665
 30
0.0
 11
99.997750000000195
 21
-903.21422749999988
 31
0.0
  0
TEXT
  5
A16
  8
HIBINO-BASE
 62
     7
 10
229.99742499999991
 20
-1053.2138524999989
 30
0.0
 40
21.4843212890625
  1
SCALE
 41
0.8
 11
229.99742499999991
 21
-1031.729531210937
 31
0.0
 73
     3
  0
TEXT
  5
A17
  8
HIBINO-BASE
 62
     7
 10
104.9977374999998
 20
-1053.2138524999989
 30
0.0
 40
19.335889160156231
  1
図面サイズ
 41
0.8
 11
104.9977374999998
 21
-1033.8779633398431
 31
0.0
 73
     3
  0
LINE
  5
A18
  8
HIBINO-BASE
  6
CONTINUOUS
 62
     7
 10
224.99743749999999
 20
-1128.213665
 30
0.0
 11
224.99743749999999
 21
-1028.213914999998
 31
0.0
  0
TEXT
  5
A19
  8
HIBINO-BASE
 62
     7
 10
137.49765624999969
 20
-1115.7136962500001
 30
0.0
 40
34.37491406249999
  1
A4
 41
0.8
 11
137.49765624999969
 21
-1081.3387821875001
 31
0.0
 73
     3
  0
LINE
  5
A1A
  8
HIBINO-BASE
  6
CONTINUOUS
 62
     7
 10
324.99718749999988
 20
-1128.213665
 30
0.0
 11
324.99718749999988
 21
-1028.213914999998
 31
0.0
  0
LINE
  5
A1B
  8
HIBINO-BASE
  6
CONTINUOUS
 62
     7
 10
243.74739062500001
 20
-1115.7136962500001
 30
0.0
 11
281.24729687499968
 21
-1078.2137899999991
 31
0.0
  0
TEXT
  5
A1C
  8
HIBINO-BASE
 62
     7
 10
237.49740625000001
 20
-1096.9637431249989
 30
0.0
 40
25.781185546875001
  1
1
 41
0.8
 11
237.49740625000001
 21
-1071.182557578124
 31
0.0
 73
     3
  0
TEXT
  5
A1D
  8
HIBINO-BASE
 62
     7
 10
274.99731250000002
 20
-1115.7136962500001
 30
0.0
 40
25.781185546875001
  1
10
 41
0.8
 11
274.99731250000002
 21
-1089.932510703125
 31
0.0
 73
     3
  0
TEXT
  5
A1E
  8
HIBINO-BASE
 62
     7
 10
104.9977374999998
 20
-928.21416500000009
 30
0.0
 40
21.4843212890625
  1
NOTE
 41
0.8
 11
104.9977374999998
 21
-906.72984371093764
 31
0.0
 73
     3
  0
LINE
  5
A1F
  8
HIBINO-BASE
  6
CONTINUOUS
 62
     7
 10
449.9968750000001
 20
-1128.213665
 30
0.0
 11
449.9968750000001
 21
-903.21422749999988
 31
0.0
  0
TEXT
  5
A20
  8
HIBINO-BASE
 62
     7
 10
454.99686249999991
 20
-1053.2138524999989
 30
0.0
 40
21.4843212890625
  1
DESIGN
 41
0.8
 11
454.99686249999991
 21
-1031.729531210937
 31
0.0
 73
     3
  0
LINE
  5
A21
  8
HIBINO-BASE
  6
CONTINUOUS
 62
     7
 10
574.99656249999975
 20
-1028.213914999998
 30
0.0
 11
574.99656250000055
 21
-1128.213665
 31
0.0
  0
TEXT
  5
A22
  8
HIBINO-BASE
 62
     7
 10
454.99686249999991
 20
-928.21416500000009
 30
0.0
 40
21.4843212890625
  1
TITLE
 41
0.8
 11
454.99686249999991
 21
-906.72984371093764
 31
0.0
 73
     3
  0
TEXT
  5
A23
  8
HIBINO-BASE
 62
     7
 10
829.99592500000017
 20
-1053.2138524999989
 30
0.0
 40
21.4843212890625
  1
DRAWING NO.
 41
0.8
 11
829.99592500000017
 21
-1031.729531210937
 31
0.0
 73
     3
  0
TEXT
  5
A24
  8
HIBINO-BASE
 62
     7
 10
687.29654458573737
 20
-1192.300304783
 30
0.0
 40
34.37491406249999
  1
ヒビノ株式会社
 41
0.8
 11
687.29654458573737
 21
-1157.9253907205
 31
0.0
 73
     3
  0
TEXT
  5
A25
  8
HIBINO-BASE
 62
     7
 10
704.99623750000046
 20
-1053.2138524999989
 30
0.0
 40
21.4843212890625
  1
CHECK
 41
0.8
 11
704.99623750000046
 21
-1031.729531210937
 31
0.0
 73
     3
  0
LINE
  5
A26
  8
HIBINO-BASE
  6
CONTINUOUS
 62
     7
 10
824.99593749999985
 20
-1028.213914999998
 30
0.0
 11
824.99593750000031
 21
-1128.213665
 31
0.0
  0
LINE
  5
A27
  8
HIBINO-BASE
  6
CONTINUOUS
 62
     7
 10
699.99625000000015
 20
-1128.213665
 30
0.0
 11
699.99625000000015
 21
-1028.213914999998
 31
0.0
  0
TEXT
  5
A28
  8
SIDE-DOWN-18_5
 62
     7
 10
-174.48984690963411
 20
-802.30473192262184
 30
0.0
 40
21.484375
  1
注1
 50
90.0
 41
0.8
 11
-195.97422190963411
 21
-802.30473192262184
 31
0.0
 73
     3
  0
ARC
  5
A29
  8
SIDE-DOWN-18_5
  6
STYLE_12
 62
     7
 10
-75.666087448993622
 20
-547.18368048245441
 30
0.0
 40
1.5699999999999621
 50
103.5000021781081
 51
198.4999999999969
  0
ARC
  5
A2A
  8
SIDE-DOWN-18_5
  6
STYLE_12
 62
     7
 10
-76.674413106284319
 20
-551.43850467046161
 30
0.0
 40
1.570000000000022
 50
103.4999647536653
 51
198.5000000000008
  0
LINE
  5
A2B
  8
SIDE-DOWN-18_5
  6
STYLE_12
 62
     7
 10
-77.040921388414986
 20
-549.91188366997415
 30
0.0
 11
-72.8988371786984
 21
-548.91745992782819
 31
0.0
  0
LINE
  5
A2C
  8
SIDE-DOWN-18_5
  6
STYLE_12
 62
     7
 10
-76.455798683912263
 20
-549.77140851786123
 30
0.0
 11
-77.154955587667146
 21
-547.6818487930102
 31
0.0
  0
LINE
  5
A2D
  8
SIDE-DOWN-18_5
  6
STYLE_12
 62
     7
 10
-78.163281244958071
 20
-551.93667298101786
 30
0.0
 11
-56.250000000000142
 21
-617.42856712217963
 31
0.0
  0
LINE
  5
A2E
  8
SIDE-DOWN-18_5
  6
STYLE_12
 62
     7
 10
-72.8988371786984
 20
-548.91745992782819
 30
0.0
 11
-56.250000000000142
 21
-598.67558925095796
 31
0.0
  0
LINE
  5
A2F
  8
SIDE-DOWN-18_5
  6
STYLE_12
 62
     7
 10
-67.141180534649962
 20
-543.52241919764003
 30
0.0
 11
-56.250000000000142
 21
-576.07272668806615
 31
0.0
  0
LINE
  5
A30
  8
SIDE-DOWN-18_5
  6
STYLE_12
 62
     7
 10
-76.032596728282002
 20
-545.65705972136277
 30
0.0
 11
-56.250000000000021
 21
-540.90767765206965
 31
0.0
  0
LINE
  5
A31
  8
SIDE-DOWN-18_5
  6
STYLE_12
 62
     7
 10
-15.50925565872944
 20
-726.54225907089358
 30
0.0
 11
82.265386123774533
 21
-684.02863928613681
 31
0.0
  0
ARC
  5
A32
  8
SIDE-DOWN-18_5
  6
STYLE_12
 62
     7
 10
-19.475169185943852
 20
-722.38902485544554
 30
0.0
 40
1.570000000000026
 50
198.5000000000008
 51
293.5000352463353
  0
ARC
  5
A33
  8
SIDE-DOWN-18_5
  6
STYLE_12
 62
     7
 10
-16.13529164220871
 20
-725.10247473030995
 30
0.0
 40
1.570000000000026
 50
198.5000000000008
 51
293.49999782189218
  0
LINE
  5
A34
  8
SIDE-DOWN-18_5
  6
STYLE_12
 62
     7
 10
-18.849132262026849
 20
-723.82880878711535
 30
0.0
 11
-14.94265757913878
 21
-722.13022239505892
 31
0.0
  0
LINE
  5
A35
  8
SIDE-DOWN-18_5
  6
STYLE_12
 62
     7
 10
-17.624159780882351
 20
-725.60064304086598
 30
0.0
 11
-18.297292435554841
 21
-723.58886159791518
 31
0.0
  0
ARC
  5
A36
  8
SIDE-DOWN-18_5
  6
STYLE_12
 62
     7
 10
81.639350140295264
 20
-682.58885494555329
 30
0.0
 40
1.570000000000018
 50
293.49999782189218
 51
18.500000000000838
  0
LINE
  5
A37
  8
SIDE-DOWN-18_5
  6
STYLE_12
 62
     7
 10
-20.256105665177191
 20
-706.25
 30
0.0
 11
-14.942657579138441
 21
-722.13022239505892
 31
0.0
  0
LINE
  5
A38
  8
SIDE-DOWN-18_5
  6
STYLE_12
 62
     7
 10
-26.53076428761371
 20
-706.25
 30
0.0
 11
-20.964037324617731
 21
-722.88719316600191
 31
0.0
  0
LINE
  5
A39
  8
SIDE-DOWN-18_5
  6
STYLE_12
 62
     7
 10
-12.693293644284831
 20
-706.25
 30
0.0
 11
-7.1235962156797683
 21
-722.89607095189945
 31
0.0
  0
LINE
  5
A3A
  8
SIDE-DOWN-18_5
  6
STYLE_12
 62
     7
 10
9.2696734781381895
 20
-706.25
 30
0.0
 11
12.04989333834326
 21
-714.55920128931382
 31
0.0
  0
LINE
  5
A3B
  8
SIDE-DOWN-18_5
  6
STYLE_12
 62
     7
 10
68.749999999999872
 20
-639.11872187360746
 30
0.0
 11
83.128218278969143
 21
-682.09068663499727
 31
0.0
  0
TEXT
  5
A3C
  8
SIDE-DOWN-18_5
 62
     7
 10
-20.1416015625
 20
-343.27108500000003
 30
0.0
 40
21.484375
  1
注1
 41
0.8
 11
-20.1416015625
 21
-321.78671000000003
 31
0.0
 73
     3
  0
LINE
  5
A3D
  8
SIDE-DOWN-18_5
  6
CONTINUOUS
 62
     7
 10
-26.13529164220871
 20
-726.67247473031682
 30
0.0
 11
-145.0
 21
-726.67247473031682
 31
0.0
  0
LINE
  5
A3E
  8
SIDE-DOWN-18_5
  6
CONTINUOUS
 62
     7
 10
-56.12370540000007
 20
-700.00000000000648
 30
0.0
 11
-145.0
 21
-700.00000000000648
 31
0.0
  0
LINE
  5
A3F
  8
SIDE-DOWN-18_5
  6
CONTINUOUS
 62
     7
 10
-125.0
 20
-700.00000000000648
 30
0.0
 11
-125.0
 21
-726.67247473031682
 31
0.0
  0
LINE
  5
A40
  8
SIDE-DOWN-18_5
 62
     7
 10
-125.0
 20
-726.67247473031682
 30
0.0
 11
-118.2996020484976
 21
-751.67870031625432
 31
0.0
  0
LINE
  5
A41
  8
SIDE-DOWN-18_5
 62
     7
 10
-125.0
 20
-726.67247473031682
 30
0.0
 11
-131.70039795150231
 21
-751.67870031625432
 31
0.0
  0
LINE
  5
A42
  8
SIDE-DOWN-18_5
  6
CONTINUOUS
 62
     7
 10
-125.0
 20
-726.67247473031682
 30
0.0
 11
-125.0
 21
-782.06448777777791
 31
0.0
  0
LINE
  5
A43
  8
SIDE-DOWN-18_5
 62
     7
 10
-125.0
 20
-700.00000000000648
 30
0.0
 11
-131.70039795150231
 21
-674.99377441406875
 31
0.0
  0
LINE
  5
A44
  8
SIDE-DOWN-18_5
 62
     7
 10
-125.0
 20
-700.00000000000648
 30
0.0
 11
-118.2996020484976
 21
-674.99377441406875
 31
0.0
  0
LINE
  5
A45
  8
SIDE-DOWN-18_5
  6
CONTINUOUS
 62
     7
 10
-125.0
 20
-700.00000000000648
 30
0.0
 11
-125.0
 21
-650.00000000000625
 31
0.0
  0
TEXT
  5
A46
  8
SIDE-DOWN-18_5
 62
     7
 10
-137.0555555555554
 20
-782.06448777777791
 30
0.0
 40
28.222222222222211
  1
27
 50
90.0
 41
0.8
 11
-165.2777777777776
 21
-782.06448777777791
 31
0.0
 73
     3
  0
LINE
  5
A47
  8
SIDE-DOWN-18_5
  6
CONTINUOUS
 62
     7
 10
-78.244413106282749
 20
-541.43850467046161
 30
0.0
 11
-78.244413106282749
 21
-376.78671000000008
 31
0.0
  0
LINE
  5
A48
  8
SIDE-DOWN-18_5
  6
CONTINUOUS
 62
     7
 10
-50.000000000000021
 20
-504.531004
 30
0.0
 11
-50.000000000000021
 21
-376.78671000000008
 31
0.0
  0
LINE
  5
A49
  8
SIDE-DOWN-18_5
  6
CONTINUOUS
 62
     7
 10
-50.000000000000021
 20
-396.78671000000003
 30
0.0
 11
-78.244413106282749
 21
-396.78671000000003
 31
0.0
  0
LINE
  5
A4A
  8
SIDE-DOWN-18_5
 62
     7
 10
-78.244413106282749
 20
-396.78671000000003
 30
0.0
 11
-103.25063869222009
 21
-403.48710795150248
 31
0.0
  0
LINE
  5
A4B
  8
SIDE-DOWN-18_5
 62
     7
 10
-78.244413106282749
 20
-396.78671000000003
 30
0.0
 11
-103.25063869222009
 21
-390.08631204849758
 31
0.0
  0
LINE
  5
A4C
  8
SIDE-DOWN-18_5
  6
CONTINUOUS
 62
     7
 10
-78.244413106282749
 20
-396.78671000000003
 30
0.0
 11
-128.24441310628271
 21
-396.78671000000003
 31
0.0
  0
LINE
  5
A4D
  8
SIDE-DOWN-18_5
 62
     7
 10
-50.000000000000021
 20
-396.78671000000003
 30
0.0
 11
-24.993774414062511
 21
-390.08631204849758
 31
0.0
  0
LINE
  5
A4E
  8
SIDE-DOWN-18_5
 62
     7
 10
-50.000000000000021
 20
-396.78671000000003
 30
0.0
 11
-24.993774414062511
 21
-403.48710795150248
 31
0.0
  0
LINE
  5
A4F
  8
SIDE-DOWN-18_5
  6
CONTINUOUS
 62
     7
 10
-50.000000000000021
 20
-396.78671000000003
 30
0.0
 11
10.27777777777777
 21
-396.78671000000003
 31
0.0
  0
TEXT
  5
A50
  8
SIDE-DOWN-18_5
 62
     7
 10
-25.0
 20
-384.73115444444448
 30
0.0
 40
28.222222222222211
  1
28
 41
0.8
 11
-25.0
 21
-356.50893222222231
 31
0.0
 73
     3
  0
TEXT
  5
A51
  8
SIDE-DOWN-18_5
 62
     7
 10
-20.1416015625
 20
-343.27108500000003
 30
0.0
 40
21.484375
  1
注1
 41
0.8
 11
-20.1416015625
 21
-321.78671000000003
 31
0.0
 73
     3
  0
LINE
  5
A52
  8
SIED-UP18_5
  6
STYLE_12
 62
     7
 10
-5.9422953285862974
 20
-484.2618193583682
 30
0.0
 11
91.832346453917793
 21
-526.7754391431248
 31
0.0
  0
ARC
  5
A53
  8
SIED-UP18_5
  6
STYLE_12
 62
     7
 10
-67.133477025223343
 20
-659.44335204069944
 30
0.0
 40
1.570000000000026
 50
161.4999999999992
 51
256.50003524633462
  0
ARC
  5
A54
  8
SIED-UP18_5
  6
STYLE_12
 62
     7
 10
-66.09912711885012
 20
-663.62039794680743
 30
0.0
 40
1.5699999999999901
 50
161.5000000000031
 51
256.49999782189172
  0
LINE
  5
A55
  8
SIED-UP18_5
  6
STYLE_12
 62
     7
 10
-67.499985307353782
 20
-660.96997304118725
 30
0.0
 11
-63.357901097637424
 21
-661.96439678333331
 31
0.0
  0
LINE
  5
A56
  8
SIED-UP18_5
  6
STYLE_12
 62
     7
 10
-67.587995257523644
 20
-663.1222296362514
 30
0.0
 11
-66.914862602851159
 21
-661.11044819330016
 31
0.0
  0
LINE
  5
A57
  8
SIED-UP18_5
  6
STYLE_12
 62
     7
 10
-68.622345163897094
 20
-658.9451837301433
 30
0.0
 11
-56.250000000000142
 21
-621.96814178493969
 31
0.0
  0
LINE
  5
A58
  8
SIED-UP18_5
  6
STYLE_12
 62
     7
 10
-63.35790109763721
 20
-661.96439678333331
 30
0.0
 11
-56.250000000000142
 21
-640.72111965616159
 31
0.0
  0
LINE
  5
A59
  8
SIED-UP18_5
  6
STYLE_12
 62
     7
 10
-57.574220204506581
 20
-667.2816592316218
 30
0.0
 11
-56.250000000000142
 21
-663.32398221905328
 31
0.0
  0
LINE
  5
A5A
  8
SIED-UP18_5
  6
STYLE_12
 62
     7
 10
-66.4656363981385
 20
-665.14701870789906
 30
0.0
 11
-56.250000000000021
 21
-667.59957642831046
 31
0.0
  0
ARC
  5
A5B
  8
SIED-UP18_5
  6
STYLE_12
 62
     7
 10
91.206310470438879
 20
-528.21522348370831
 30
0.0
 40
1.570000000000026
 50
341.4999999999992
 51
66.50000217810765
  0
LINE
  5
A5C
  8
SIED-UP18_5
  6
STYLE_12
 62
     7
 10
68.749999999999872
 20
-600.27798703351232
 30
0.0
 11
92.695178609112745
 21
-528.71339179426457
 31
0.0
  0
TEXT
  5
A5D
  8
SIED-UP18_5
 62
     7
 10
-156.2499999999998
 20
-466.92831156250008
 30
0.0
 40
21.484375
  1
注1
 50
90.0
 41
0.8
 11
-177.7343749999998
 21
-466.92831156250008
 31
0.0
 73
     3
  0
ARC
  5
A5E
  8
SIED-UP18_5
  6
STYLE_12
 62
     7
 10
-6.568331312065097
 20
-485.70160369895171
 30
0.0
 40
1.570000000000018
 50
66.500002178107621
 51
161.49999999999901
  0
ARC
  5
A5F
  8
SIED-UP18_5
  6
STYLE_12
 62
     7
 10
-9.9342331048828925
 20
-488.49283185571539
 30
0.0
 40
1.5699999999999801
 50
66.499964753662894
 51
161.49999999999901
  0
LINE
  5
A60
  8
SIED-UP18_5
  6
STYLE_12
 62
     7
 10
-9.3081961809661031
 20
-487.05304792404633
 30
0.0
 11
-5.4017214980775758
 21
-488.75163431610218
 31
0.0
  0
LINE
  5
A61
  8
SIED-UP18_5
  6
STYLE_12
 62
     7
 10
-8.7563563544942014
 20
-487.29299511324632
 30
0.0
 11
-8.0571994507388496
 21
-485.20343538839569
 31
0.0
  0
LINE
  5
A62
  8
SIED-UP18_5
  6
STYLE_12
 62
     7
 10
-2.6050075642935
 20
-502.99599999999992
 30
0.0
 11
2.443364114463392
 21
-487.90800747736222
 31
0.0
  0
LINE
  5
A63
  8
SIED-UP18_5
  6
STYLE_12
 62
     7
 10
-10.167819585185621
 20
-502.99599999999992
 30
0.0
 11
-5.4017214980775758
 21
-488.75163431610218
 31
0.0
  0
LINE
  5
A64
  8
SIED-UP18_5
  6
STYLE_12
 62
     7
 10
-16.442478207622241
 20
-502.99599999999992
 30
0.0
 11
-11.423101243556641
 21
-487.9946635451592
 31
0.0
  0
LINE
  5
A65
  8
SIED-UP18_5
  6
STYLE_12
 62
     7
 10
19.35795955812976
 20
-502.99599999999992
 30
0.0
 11
21.616853668486421
 21
-496.24487713994779
 31
0.0
  0
LINE
  5
A66
  8
SIED-UP18_5
  6
CONTINUOUS
 62
     7
 10
-16.568331312065091
 20
-484.13160369894479
 30
0.0
 11
-120.0
 21
-484.13160369894479
 31
0.0
  0
LINE
  5
A67
  8
SIED-UP18_5
  6
CONTINUOUS
 62
     7
 10
-56.12370540000007
 20
-509.24599999999339
 30
0.0
 11
-120.0
 21
-509.24599999999339
 31
0.0
  0
LINE
  5
A68
  8
SIED-UP18_5
  6
CONTINUOUS
 62
     7
 10
-100.0
 20
-509.24599999999339
 30
0.0
 11
-100.0
 21
-484.13160369894479
 31
0.0
  0
LINE
  5
A69
  8
SIED-UP18_5
 62
     7
 10
-100.0
 20
-484.13160369894479
 30
0.0
 11
-106.7003979515023
 21
-459.12537811300751
 31
0.0
  0
LINE
  5
A6A
  8
SIED-UP18_5
 62
     7
 10
-100.0
 20
-484.13160369894479
 30
0.0
 11
-93.299602048497604
 21
-459.12537811300751
 31
0.0
  0
LINE
  5
A6B
  8
SIED-UP18_5
  6
CONTINUOUS
 62
     7
 10
-100.0
 20
-484.13160369894479
 30
0.0
 11
-100.0
 21
-436.50893222222231
 31
0.0
  0
LINE
  5
A6C
  8
SIED-UP18_5
 62
     7
 10
-100.0
 20
-509.24599999999339
 30
0.0
 11
-93.299602048497604
 21
-534.25222558593066
 31
0.0
  0
LINE
  5
A6D
  8
SIED-UP18_5
 62
     7
 10
-100.0
 20
-509.24599999999339
 30
0.0
 11
-106.7003979515023
 21
-534.25222558593066
 31
0.0
  0
LINE
  5
A6E
  8
SIED-UP18_5
  6
CONTINUOUS
 62
     7
 10
-100.0
 20
-509.24599999999339
 30
0.0
 11
-100.0
 21
-559.24599999999339
 31
0.0
  0
TEXT
  5
A6F
  8
SIED-UP18_5
 62
     7
 10
-112.0555555555554
 20
-471.78671000000008
 30
0.0
 40
28.222222222222211
  1
25
 50
90.0
 41
0.8
 11
-140.2777777777776
 21
-471.78671000000008
 31
0.0
 73
     3
  0
LINE
  5
A70
  8
SIED-UP18_5
  6
CONTINUOUS
 62
     7
 10
-68.703477025221773
 20
-669.44335204069944
 30
0.0
 11
-68.703477025221773
 21
-891.78670999999974
 31
0.0
  0
LINE
  5
A71
  8
SIED-UP18_5
  6
CONTINUOUS
 62
     7
 10
-50.000000000000021
 20
-704.79701259999956
 30
0.0
 11
-50.000000000000021
 21
-891.78670999999974
 31
0.0
  0
LINE
  5
A72
  8
SIED-UP18_5
  6
CONTINUOUS
 62
     7
 10
-50.000000000000021
 20
-871.78670999999986
 30
0.0
 11
-68.703477025221773
 21
-871.78670999999986
 31
0.0
  0
LINE
  5
A73
  8
SIED-UP18_5
 62
     7
 10
-68.703477025221773
 20
-871.78670999999986
 30
0.0
 11
-93.709702611159287
 21
-878.48710795150225
 31
0.0
  0
LINE
  5
A74
  8
SIED-UP18_5
 62
     7
 10
-68.703477025221773
 20
-871.78670999999986
 30
0.0
 11
-93.709702611159287
 21
-865.08631204849769
 31
0.0
  0
LINE
  5
A75
  8
SIED-UP18_5
  6
CONTINUOUS
 62
     7
 10
-68.703477025221773
 20
-871.78670999999986
 30
0.0
 11
-135.2777777777776
 21
-871.78670999999986
 31
0.0
  0
LINE
  5
A76
  8
SIED-UP18_5
 62
     7
 10
-50.000000000000021
 20
-871.78670999999986
 30
0.0
 11
-24.993774414062511
 21
-865.08631204849769
 31
0.0
  0
LINE
  5
A77
  8
SIED-UP18_5
 62
     7
 10
-50.000000000000021
 20
-871.78670999999986
 30
0.0
 11
-24.993774414062511
 21
-878.48710795150225
 31
0.0
  0
LINE
  5
A78
  8
SIED-UP18_5
  6
CONTINUOUS
 62
     7
 10
-50.000000000000021
 20
-871.78670999999986
 30
0.0
 11
-0.0000000000000142
 21
-871.78670999999986
 31
0.0
  0
TEXT
  5
A79
  8
SIED-UP18_5
 62
     7
 10
-135.2777777777776
 20
-859.73115444444443
 30
0.0
 40
28.222222222222211
  1
19
 41
0.8
 11
-135.2777777777776
 21
-831.50893222222226
 31
0.0
 73
     3
  0
TEXT
  5
A7A
  8
SIED-UP18_5
 62
     7
 10
-120.1416015625
 20
-825.88212034791934
 30
0.0
 40
21.484375
  1
注1
 41
0.8
 11
-120.1416015625
 21
-804.39774534791934
 31
0.0
 73
     3
  0
ARC
  5
A7B
  8
TOP22
  6
STYLE_12
 62
     7
 10
-448.45367446379282
 20
-251.8750810336519
 30
0.0
 40
12.500000000000069
 50
305.32979117494648
 51
16.300000000000011
  0
ARC
  5
A7C
  8
TOP22
  6
STYLE_12
 62
     7
 10
-588.12609500221595
 20
-55.745461355449152
 30
0.0
 40
255.52399999999989
 50
301.07111586356581
 51
306.26677823053558
  0
LINE
  5
A7D
  8
TOP22
  6
STYLE_12
 62
     7
 10
-493.16334623710651
 20
-180.90840052655889
 30
0.0
 11
-440.35936490988968
 21
-235.01865059532031
 31
0.0
  0
TEXT
  5
A7E
  8
TOP22
 62
     7
 10
-420.08594393121763
 20
-366.92831156250003
 30
0.0
 40
21.484375
  1
注1
 50
90.0
 41
0.8
 11
-441.57031893121763
 21
-366.92831156250003
 31
0.0
 73
     3
  0
LINE
  5
A7F
  8
TOP22
  6
STYLE_12
 62
     7
 10
-553.74254870486027
 20
-308.94555282466172
 30
0.0
 11
-554.89500694919445
 21
-306.09311857499949
 31
0.0
  0
ARC
  5
A80
  8
TOP22
  6
STYLE_12
 62
     7
 10
-552.35492646134037
 20
-293.85391961774639
 30
0.0
 40
12.50000000000005
 50
218.07456179460081
 51
278.67021629622297
  0
ARC
  5
A81
  8
TOP22
  6
STYLE_12
 62
     7
 10
-588.9900550097077
 20
-53.607105003598463
 30
0.0
 40
255.52399999999989
 50
278.6702162962228
 51
283.98001226157157
  0
ARC
  5
A82
  8
TOP22
  6
STYLE_12
 62
     7
 10
-588.12609500221595
 20
-55.745461355449152
 30
0.0
 40
255.52399999999989
 50
277.73323119606113
 51
285.84338429602769
  0
ARC
  5
A83
  8
TOP22
  6
STYLE_12
 62
     7
 10
-588.9900550097077
 20
-53.607105003598463
 30
0.0
 40
255.52399999999989
 50
301.29756041899958
 51
305.32979117494563
  0
ARC
  5
A84
  8
TOP22
  6
STYLE_12
 62
     7
 10
-502.10950540840338
 20
-189.63859159444681
 30
0.0
 40
12.499999999999959
 50
44.299999999999812
 51
111.9999999999997
  0
LINE
  5
A85
  8
TOP22
  6
STYLE_12
 62
     7
 10
-517.58880122261917
 20
-182.41094877738081
 30
0.0
 11
-506.7920878261022
 21
-178.0487934123621
 31
0.0
  0
TEXT
  5
A86
  8
TOP22
 62
     7
 10
-395.1416015625
 20
-173.5581815125646
 30
0.0
 40
21.484375
  1
注1
 41
0.8
 11
-395.1416015625
 21
-152.0738065125646
 31
0.0
 73
     3
  0
LINE
  5
A87
  8
TOP22
  6
STYLE_12
 62
     7
 10
-436.45610831410278
 20
-248.366747172142
 30
0.0
 11
-440.35936490988968
 21
-235.01865059532031
 31
0.0
  0
LINE
  5
A88
  8
TOP22
  6
STYLE_12
 62
     7
 10
-436.97195149486521
 20
-261.7671579715074
 30
0.0
 11
-438.12441476439341
 21
-258.91471128405328
 31
0.0
  0
LINE
  5
A89
  8
TOP22
  6
CONTINUOUS
 62
     7
 10
-543.74254870486038
 20
-308.94555282466172
 30
0.0
 11
-355.0
 21
-308.94555282466172
 31
0.0
  0
LINE
  5
A8A
  8
TOP22
  6
CONTINUOUS
 62
     7
 10
-520.14975000000004
 20
-300.00000000000051
 30
0.0
 11
-355.0
 21
-300.00000000000051
 31
0.0
  0
LINE
  5
A8B
  8
TOP22
  6
CONTINUOUS
 62
     7
 10
-375.0
 20
-300.00000000000051
 30
0.0
 11
-375.0
 21
-308.94555282466172
 31
0.0
  0
LINE
  5
A8C
  8
TOP22
 62
     7
 10
-375.0
 20
-308.94555282466172
 30
0.0
 11
-368.2996020484976
 21
-333.95177841059922
 31
0.0
  0
LINE
  5
A8D
  8
TOP22
 62
     7
 10
-375.0
 20
-308.94555282466172
 30
0.0
 11
-381.70039795150251
 21
-333.95177841059922
 31
0.0
  0
LINE
  5
A8E
  8
TOP22
  6
CONTINUOUS
 62
     7
 10
-375.0
 20
-308.94555282466172
 30
0.0
 11
-375.0
 21
-339.425598888889
 31
0.0
  0
LINE
  5
A8F
  8
TOP22
 62
     7
 10
-375.0
 20
-300.00000000000051
 30
0.0
 11
-381.70039795150251
 21
-274.99377441406313
 31
0.0
  0
LINE
  5
A90
  8
TOP22
 62
     7
 10
-375.0
 20
-300.00000000000051
 30
0.0
 11
-368.2996020484976
 21
-274.99377441406313
 31
0.0
  0
LINE
  5
A91
  8
TOP22
  6
CONTINUOUS
 62
     7
 10
-375.0
 20
-300.00000000000051
 30
0.0
 11
-375.0
 21
-250.0000000000004
 31
0.0
  0
TEXT
  5
A92
  8
TOP22
 62
     7
 10
-387.05555555555537
 20
-339.425598888889
 30
0.0
 40
28.222222222222211
  1
9
 50
90.0
 41
0.8
 11
-415.2777777777776
 21
-339.425598888889
 31
0.0
 73
     3
  0
LINE
  5
A93
  8
TOP22
  6
CONTINUOUS
 62
     7
 10
-435.9536744637897
 20
-241.8750810336519
 30
0.0
 11
-435.9536744637897
 21
-201.78671000000011
 31
0.0
  0
LINE
  5
A94
  8
TOP22
  6
CONTINUOUS
 62
     7
 10
-460.29974999999979
 20
-256.049598
 30
0.0
 11
-460.29974999999979
 21
-201.78671000000011
 31
0.0
  0
LINE
  5
A95
  8
TOP22
  6
CONTINUOUS
 62
     7
 10
-460.29974999999979
 20
-221.78670999999991
 30
0.0
 11
-435.9536744637897
 21
-221.78670999999991
 31
0.0
  0
LINE
  5
A96
  8
TOP22
 62
     7
 10
-435.9536744637897
 20
-221.78670999999991
 30
0.0
 11
-410.9474488778522
 21
-215.08631204849749
 31
0.0
  0
LINE
  5
A97
  8
TOP22
 62
     7
 10
-435.9536744637897
 20
-221.78670999999991
 30
0.0
 11
-410.9474488778522
 21
-228.4871079515024
 31
0.0
  0
LINE
  5
A98
  8
TOP22
  6
CONTINUOUS
 62
     7
 10
-435.9536744637897
 20
-221.78670999999991
 30
0.0
 11
-364.72222222222217
 21
-221.78670999999991
 31
0.0
  0
LINE
  5
A99
  8
TOP22
 62
     7
 10
-460.29974999999979
 20
-221.78670999999991
 30
0.0
 11
-485.30597558593729
 21
-228.4871079515024
 31
0.0
  0
LINE
  5
A9A
  8
TOP22
 62
     7
 10
-460.29974999999979
 20
-221.78670999999991
 30
0.0
 11
-485.30597558593729
 21
-215.08631204849749
 31
0.0
  0
LINE
  5
A9B
  8
TOP22
  6
CONTINUOUS
 62
     7
 10
-460.29974999999979
 20
-221.78670999999991
 30
0.0
 11
-510.29974999999979
 21
-221.78670999999991
 31
0.0
  0
TEXT
  5
A9C
  8
TOP22
 62
     7
 10
-400.0
 20
-209.73115444444451
 30
0.0
 40
28.222222222222211
  1
24
 41
0.8
 11
-400.0
 21
-181.50893222222231
 31
0.0
 73
     3
  0
LINE
  5
A9D
  8
BRACKET
  6
STYLE_12
 62
     7
 10
-549.89975000000004
 20
-158.34193019999981
 30
0.0
 11
-510.39974999999998
 21
-158.34193019999981
 31
0.0
  0
ARC
  5
A9E
  8
BRACKET
  6
STYLE_12
 62
     7
 10
-530.14975000000004
 20
-136.11506452835721
 30
0.0
 40
31.726865671642571
 50
232.0756085708224
 51
307.9243914291776
  0
LINE
  5
A9F
  8
BRACKET
  6
STYLE_12
 62
     7
 10
-522.64975000000015
 20
-169.64193020000039
 30
0.0
 11
-522.64975000000015
 21
-166.94271454172139
 31
0.0
  0
LINE
  5
AA0
  8
BRACKET
  6
STYLE_12
 62
     7
 10
-537.64975000000015
 20
-169.64193020000039
 30
0.0
 11
-537.64975000000015
 21
-166.94271454172139
 31
0.0
  0
LINE
  5
AA1
  8
BRACKET
  6
STYLE_12
 62
     7
 10
-533.2497500000004
 20
-175.74193019999981
 30
0.0
 11
-533.2497500000004
 21
-188.58360012442091
 31
0.0
  0
LINE
  5
AA2
  8
BRACKET
  6
STYLE_12
 62
     7
 10
-527.04975000000013
 20
-188.58360012442051
 30
0.0
 11
-527.04975000000013
 21
-175.7419302000005
 31
0.0
  0
LINE
  5
AA3
  8
BRACKET
  6
STYLE_12
 62
     7
 10
-534.99949226119259
 20
-175.7419302000005
 30
0.0
 11
-534.99949226119259
 21
-170.9419302
 31
0.0
  0
LINE
  5
AA4
  8
BRACKET
  6
STYLE_12
 62
     7
 10
-525.30000773880715
 20
-175.7419302000005
 30
0.0
 11
-525.30000773880715
 21
-170.9419302
 31
0.0
  0
LINE
  5
AA5
  8
BRACKET
  6
STYLE_12
 62
     7
 10
-530.14975000000004
 20
-175.7419302000005
 30
0.0
 11
-530.14975000000004
 21
-170.9419302
 31
0.0
  0
LINE
  5
AA6
  8
BRACKET
  6
STYLE_12
 62
     7
 10
-534.99949226119259
 20
-175.7419302000005
 30
0.0
 11
-525.30000773880715
 21
-175.7419302000005
 31
0.0
  0
LINE
  5
AA7
  8
BRACKET
  6
STYLE_12
 62
     7
 10
-537.64975000000004
 20
-169.64193020000039
 30
0.0
 11
-522.64975000000004
 21
-169.64193020000039
 31
0.0
  0
LINE
  5
AA8
  8
BRACKET
  6
STYLE_12
 62
     7
 10
-535.54975000000013
 20
-170.9419302
 30
0.0
 11
-524.74974999999995
 21
-170.9419302
 31
0.0
  0
LINE
  5
AA9
  8
BRACKET
  6
STYLE_12
 62
     7
 10
-535.54975000000013
 20
-170.9419302
 30
0.0
 11
-535.54975000000013
 21
-169.6419301999999
 31
0.0
  0
LINE
  5
AAA
  8
BRACKET
  6
STYLE_12
 62
     7
 10
-527.14975000000015
 20
-170.9419302
 30
0.0
 11
-527.14975000000015
 21
-169.6419301999999
 31
0.0
  0
LINE
  5
AAB
  8
BRACKET
  6
STYLE_12
 62
     7
 10
-524.74974999999995
 20
-170.9419302
 30
0.0
 11
-524.74974999999995
 21
-169.64193020000039
 31
0.0
  0
ARC
  5
AAC
  8
BRACKET
  6
STYLE_12
 62
     7
 10
-530.14975000000004
 20
-199.24193020000001
 30
0.0
 40
11.099999999999829
 50
106.2171945632188
 51
73.782805436784102
  0
LINE
  5
AAD
  8
BRACKET
  6
STYLE_12
 62
     7
 10
-533.2497500000004
 20
-188.58360012442091
 30
0.0
 11
-527.04975000000013
 21
-188.58360012442051
 31
0.0
  0
LINE
  5
AAE
  8
BRACKET
  6
STYLE_12
 62
     7
 10
-539.89975000000004
 20
-162.74193019999981
 30
0.0
 11
-520.39975000000004
 21
-162.74193019999981
 31
0.0
  0
LINE
  5
AAF
  8
BRACKET
  6
STYLE_12
 62
     7
 10
-549.64975000000004
 20
-161.1419302000001
 30
0.0
 11
-549.89975000000004
 21
-158.34193019999981
 31
0.0
  0
LINE
  5
AB0
  8
BRACKET
  6
STYLE_12
 62
     7
 10
-539.89975000000004
 20
-166.30664456893231
 30
0.0
 11
-539.89975000000004
 21
-162.74193019999981
 31
0.0
  0
LINE
  5
AB1
  8
BRACKET
  6
STYLE_12
 62
     7
 10
-510.64974999999993
 20
-161.1419302000001
 30
0.0
 11
-510.39974999999998
 21
-158.34193019999981
 31
0.0
  0
LINE
  5
AB2
  8
BRACKET
  6
STYLE_12
 62
     7
 10
-520.39975000000004
 20
-166.30664456893231
 30
0.0
 11
-520.39975000000004
 21
-162.74193019999981
 31
0.0
  0
ARC
  5
AB3
  8
BRACKET
  6
STYLE_12
 62
     7
 10
50.758069799999923
 20
-619.69835445355955
 30
0.0
 40
11.09999999999998
 50
16.217194563217362
 51
343.78280543678369
  0
LINE
  5
AB4
  8
BRACKET
  6
STYLE_12
 62
     7
 10
79.058069799999984
 20
-614.29835445355968
 30
0.0
 11
80.35806980000028
 21
-614.29835445355968
 31
0.0
  0
LINE
  5
AB5
  8
BRACKET
  6
STYLE_12
 62
     7
 10
79.058069799999984
 20
-622.69835445355955
 30
0.0
 11
80.35806980000028
 21
-622.69835445355955
 31
0.0
  0
LINE
  5
AB6
  8
BRACKET
  6
STYLE_12
 62
     7
 10
79.058069799999984
 20
-625.0983544535593
 30
0.0
 11
80.358069799999797
 21
-625.0983544535593
 31
0.0
  0
LINE
  5
AB7
  8
BRACKET
  6
STYLE_12
 62
     7
 10
61.416399875579252
 20
-616.59835445355952
 30
0.0
 11
74.25806980000003
 21
-616.59835445355952
 31
0.0
  0
LINE
  5
AB8
  8
BRACKET
  6
STYLE_12
 62
     7
 10
61.416399875579252
 20
-622.79835445355968
 30
0.0
 11
74.25806980000003
 21
-622.79835445355968
 31
0.0
  0
LINE
  5
AB9
  8
BRACKET
  6
STYLE_12
 62
     7
 10
74.25806980000003
 20
-614.84861219236643
 30
0.0
 11
79.058069799999984
 21
-614.84861219236643
 31
0.0
  0
LINE
  5
ABA
  8
BRACKET
  6
STYLE_12
 62
     7
 10
74.25806980000003
 20
-624.54809671475232
 30
0.0
 11
79.058069799999984
 21
-624.54809671475232
 31
0.0
  0
LINE
  5
ABB
  8
BRACKET
  6
STYLE_12
 62
     7
 10
74.25806980000003
 20
-619.69835445355955
 30
0.0
 11
79.058069799999984
 21
-619.69835445355955
 31
0.0
  0
LINE
  5
ABC
  8
BRACKET
  6
STYLE_12
 62
     7
 10
74.25806980000003
 20
-614.84861219236643
 30
0.0
 11
74.25806980000003
 21
-624.54809671475232
 31
0.0
  0
LINE
  5
ABD
  8
BRACKET
  6
STYLE_12
 62
     7
 10
79.058069799999984
 20
-614.29835445355968
 30
0.0
 11
79.058069799999984
 21
-625.0983544535593
 31
0.0
  0
LINE
  5
ABE
  8
BRACKET
  6
STYLE_12
 62
     7
 10
61.416399875579252
 20
-622.79835445355968
 30
0.0
 11
61.416399875579252
 21
-616.59835445355952
 31
0.0
  0
LINE
  5
ABF
  8
BRACKET
  6
STYLE_12
 62
     7
 10
83.658069800000007
 20
-656.44835445355977
 30
0.0
 11
91.658069800000007
 21
-656.44835445355977
 31
0.0
  0
LINE
  5
AC0
  8
BRACKET
  6
STYLE_12
 62
     7
 10
83.658069800000007
 20
-582.94835445355955
 30
0.0
 11
91.658069800000007
 21
-582.94835445355955
 31
0.0
  0
LINE
  5
AC1
  8
BRACKET
  6
STYLE_12
 62
     7
 10
82.158069800000007
 20
-599.33072054847423
 30
0.0
 11
82.158069800000007
 21
-640.06598835864474
 31
0.0
  0
LINE
  5
AC2
  8
BRACKET
  6
STYLE_12
 62
     7
 10
82.216211311746846
 20
-640.8262742799144
 30
0.0
 11
83.599928288253153
 21
-649.82043462720492
 31
0.0
  0
LINE
  5
AC3
  8
BRACKET
  6
STYLE_12
 62
     7
 10
83.658069800000007
 20
-650.58072054847491
 30
0.0
 11
83.658069800000007
 21
-656.44835445355977
 31
0.0
  0
ARC
  5
AC4
  8
BRACKET
  6
STYLE_12
 62
     7
 10
78.658069800000121
 20
-650.58072054847491
 30
0.0
 40
5.0
 50
0.0
 51
8.7461622625560231
  0
ARC
  5
AC5
  8
BRACKET
  6
STYLE_12
 62
     7
 10
87.158069799999794
 20
-640.06598835864474
 30
0.0
 40
5.0
 50
180.0
 51
188.7461622625558
  0
LINE
  5
AC6
  8
BRACKET
  6
STYLE_12
 62
     7
 10
83.658069800000007
 20
-582.94835445355955
 30
0.0
 11
83.658069800000007
 21
-588.81598835864452
 31
0.0
  0
ARC
  5
AC7
  8
BRACKET
  6
STYLE_12
 62
     7
 10
78.658069800000121
 20
-588.81598835864452
 30
0.0
 40
4.999999999999952
 50
351.25383773744522
 51
0.0
  0
LINE
  5
AC8
  8
BRACKET
  6
STYLE_12
 62
     7
 10
83.599928288253153
 20
-589.57627427991395
 30
0.0
 11
82.216211311746846
 21
-598.57043462720435
 31
0.0
  0
ARC
  5
AC9
  8
BRACKET
  6
STYLE_12
 62
     7
 10
87.158069800000135
 20
-599.33072054847423
 30
0.0
 40
4.999999999999952
 50
171.2538377374452
 51
180.0
  0
LINE
  5
ACA
  8
BRACKET
  6
STYLE_12
 62
     7
 10
80.358069799999797
 20
-612.19835445355932
 30
0.0
 11
82.158069800000007
 21
-612.19835445355932
 31
0.0
  0
LINE
  5
ACB
  8
BRACKET
  6
STYLE_12
 62
     7
 10
80.358069799999797
 20
-627.19835445355955
 30
0.0
 11
82.158069800000007
 21
-627.19835445355955
 31
0.0
  0
LINE
  5
ACC
  8
BRACKET
  6
STYLE_12
 62
     7
 10
80.358069799999797
 20
-612.19835445355955
 30
0.0
 11
80.358069799999797
 21
-627.19835445355955
 31
0.0
  0
LINE
  5
ACD
  8
BRACKET
  6
STYLE_12
 62
     7
 10
91.658069800000007
 20
-656.44835445355977
 30
0.0
 11
91.658069800000007
 21
-582.94835445355955
 31
0.0
  0
LINE
  5
ACE
  8
BRACKET
  6
STYLE_12
 62
     7
 10
88.858069799999953
 20
-582.94835445355955
 30
0.0
 11
88.858069799999953
 21
-656.44835445355977
 31
0.0
  0
LINE
  5
ACF
  8
BRACKET
  6
STYLE_11
 62
     7
 10
-530.14975000000004
 20
-199.24193020000001
 30
0.0
 11
-483.03994787766169
 21
-315.84278210004311
 31
0.0
  0
LINE
  5
AD0
  8
BRACKET
  6
STYLE_11
 62
     7
 10
-530.14974999999981
 20
-199.24193020000001
 30
0.0
 11
-577.25955212233839
 21
-315.84278210004311
 31
0.0
  0
LINE
  5
AD1
  8
BRACKET
  6
STYLE_11
 62
     7
 10
-530.14975000000004
 20
-325.0
 30
0.0
 11
-530.14975000000004
 21
-158.34193019999981
 31
0.0
  0
LINE
  5
AD2
  8
BRACKET
  6
STYLE_11
 62
     7
 10
-100.0
 20
-619.69835445355955
 30
0.0
 11
91.658069799999794
 21
-619.69835445355955
 31
0.0
  0
LINE
  5
AD3
  8
BRACKET
  6
STYLE_11
 62
     7
 10
-100.0
 20
-670.14129898580654
 30
0.0
 11
50.758069799999582
 21
-619.69835445355955
 31
0.0
  0
LINE
  5
AD4
  8
BRACKET
  6
STYLE_11
 62
     7
 10
-100.0
 20
-569.25540992131243
 30
0.0
 11
50.758069799999582
 21
-619.69835445355955
 31
0.0
  0
INSERT
  5
AD5
  8
PATTERN_FILL
 62
     7
  2
*U2
 10
100.0
 20
140.0
 30
0.0
  0
INSERT
  5
AD6
  8
PATTERN_FILL
 62
     7
  2
*U3
 10
100.0
 20
140.0
 30
0.0
  0
LINE
  5
AD7
  8
SPEC
  6
CONTINUOUS
 62
     7
 10
-725.00018750000015
 20
1371.7800850000001
 30
0.0
 11
699.99625000000015
 21
1371.7800849999981
 31
0.0
  0
LINE
  5
AD8
  8
SPEC
  6
CONTINUOUS
 62
     7
 10
-725.00018750000049
 20
1334.28017875
 30
0.0
 11
699.99624999999958
 21
1334.2801787500021
 31
0.0
  0
LINE
  5
AD9
  8
SPEC
  6
CONTINUOUS
 62
     7
 10
-725.00018750000095
 20
1296.780272500004
 30
0.0
 11
699.99624999999924
 21
1296.780272500004
 31
0.0
  0
LINE
  5
ADA
  8
SPEC
  6
CONTINUOUS
 62
     7
 10
-725.00018750000766
 20
1221.7804599999961
 30
0.0
 11
699.99625000000015
 21
1221.780459999994
 31
0.0
  0
LINE
  5
ADB
  8
SPEC
  6
CONTINUOUS
 62
     7
 10
-725.00018750000243
 20
1184.280553749996
 30
0.0
 11
699.99625000000015
 21
1184.280553749996
 31
0.0
  0
LINE
  5
ADC
  8
SPEC
  6
CONTINUOUS
 62
     7
 10
-725.00018750000356
 20
1146.780647499995
 30
0.0
 11
699.99625000000015
 21
1146.780647499992
 31
0.0
  0
LINE
  5
ADD
  8
SPEC
  6
CONTINUOUS
 62
     7
 10
-725.00018750000504
 20
1109.2807412500081
 30
0.0
 11
699.99624999999924
 21
1109.2807412500069
 31
0.0
  0
LINE
  5
ADE
  8
SPEC
  6
CONTINUOUS
 62
     7
 10
-725.00018750000447
 20
1071.780835000015
 30
0.0
 11
699.99624999999833
 21
1071.7808350000139
 31
0.0
  0
LINE
  5
ADF
  8
SPEC
  6
CONTINUOUS
 62
     7
 10
-725.00018750000447
 20
996.78102250002325
 30
0.0
 11
699.99625000000037
 21
996.78102250002235
 31
0.0
  0
LINE
  5
AE0
  8
SPEC
  6
CONTINUOUS
 62
     7
 10
-725.00018750000447
 20
1034.280928750022
 30
0.0
 11
699.99625000000037
 21
1034.2809287500211
 31
0.0
  0
LINE
  5
AE1
  8
SPEC
  6
CONTINUOUS
 62
     7
 10
-725.00018750000243
 20
1259.280366249996
 30
0.0
 11
699.99625000000015
 21
1259.2803662499971
 31
0.0
  0
LINE
  5
AE2
  8
SPEC
  6
CONTINUOUS
 62
     7
 10
-725.00018750000447
 20
921.78121000002795
 30
0.0
 11
699.99625000000037
 21
921.78121000002625
 31
0.0
  0
LINE
  5
AE3
  8
SPEC
  6
CONTINUOUS
 62
     7
 10
-725.00018750000447
 20
846.78139750003163
 30
0.0
 11
699.99625000000106
 21
846.78139750003004
 31
0.0
  0
LINE
  5
AE4
  8
SPEC
  6
CONTINUOUS
 62
     7
 10
-725.00018750000447
 20
884.28130375003104
 30
0.0
 11
699.99625000000106
 21
884.28130375002991
 31
0.0
  0
LINE
  5
AE5
  8
SPEC
  6
CONTINUOUS
 62
     7
 10
-725.00018750000356
 20
809.28149125003142
 30
0.0
 11
699.99624999999787
 21
809.28149125003051
 31
0.0
  0
LINE
  5
AE6
  8
SPEC
  6
CONTINUOUS
 62
     7
 10
-725.00018750000447
 20
771.78158500003144
 30
0.0
 11
699.99625000000015
 21
771.78158500003144
 31
0.0
  0
LINE
  5
AE7
  8
SPEC
  6
CONTINUOUS
 62
     7
 10
-725.00018750000447
 20
734.28167875003192
 30
0.0
 11
699.99625000000015
 21
734.28167875003192
 31
0.0
  0
LINE
  5
AE8
  8
SPEC
  6
CONTINUOUS
 62
     7
 10
-725.0001874999989
 20
696.78177250003148
 30
0.0
 11
699.99625000000015
 21
696.78177250003228
 31
0.0
  0
LINE
  5
AE9
  8
SPEC
  6
CONTINUOUS
 62
     7
 10
-725.0001874999989
 20
659.28186625003116
 30
0.0
 11
699.99625000000015
 21
659.28186625003195
 31
0.0
  0
LINE
  5
AEA
  8
SPEC
  6
CONTINUOUS
 62
     7
 10
-725.00018750000015
 20
659.28186625003116
 30
0.0
 11
-725.00018750000015
 21
1371.7800850000001
 31
0.0
  0
TEXT
  5
AEB
  8
SPEC
 62
     7
 10
-712.5
 20
1387.481090419921
 30
0.0
 40
25.781185546875001
  1
仕様
 41
0.8
 11
-712.5
 21
1413.262275966795
 31
0.0
 73
     3
  0
LINE
  5
AEC
  8
SPEC
  6
CONTINUOUS
 62
     7
 10
-400.00100000000032
 20
1371.7800850000001
 30
0.0
 11
-400.00099999999901
 21
659.28186625003116
 31
0.0
  0
LINE
  5
AED
  8
SPEC
  6
CONTINUOUS
 62
     7
 10
433.33274999999958
 20
533.33325000000002
 30
0.0
 11
433.33274999999958
 21
400.00025000000051
 31
0.0
  0
TEXT
  5
AEE
  8
SPEC
 62
     7
 10
487.56087487433791
 20
510.25409869791702
 30
0.0
 40
16.93333333333333
  1
ハイパス
 41
0.8
 11
487.56087487433791
 21
527.18743203125041
 31
0.0
 73
     3
  0
LINE
  5
AEF
  8
SPEC
  6
CONTINUOUS
 62
     7
 10
225.0
 20
500.0
 30
0.0
 11
225.0
 21
566.66650000000004
 31
0.0
  0
LINE
  5
AF0
  8
SPEC
  6
CONTINUOUS
 62
     7
 10
474.9999999999996
 20
450.00012500000048
 30
0.0
 11
475.0
 21
549.99987500000088
 31
0.0
  0
LINE
  5
AF1
  8
SPEC
  6
CONTINUOUS
 62
     7
 10
400.0
 20
500.0
 30
0.0
 11
400.0
 21
566.66650000000004
 31
0.0
  0
CIRCLE
  5
AF2
  8
SPEC
  6
CONTINUOUS
 62
     7
 10
800.0
 20
500.0
 30
0.0
 40
49.999875000000422
  0
CIRCLE
  5
AF3
  8
SPEC
  6
CONTINUOUS
 62
     7
 10
800.0
 20
500.0
 30
0.0
 40
33.33325000000012
  0
CIRCLE
  5
AF4
  8
SPEC
  6
CONTINUOUS
 62
     7
 10
800.0
 20
500.0
 30
0.0
 40
29.333260000000319
  0
ARC
  5
AF5
  8
SPEC
  6
CONTINUOUS
 62
     7
 10
800.0
 20
500.0
 30
0.0
 40
83.333124999999967
 50
168.4630409671845
 51
191.53695903281559
  0
LINE
  5
AF6
  8
SPEC
  6
CONTINUOUS
 62
     7
 10
600.0
 20
450.00012500000031
 30
0.0
 11
600.0
 21
549.99987500000066
 31
0.0
  0
ARC
  5
AF7
  8
SPEC
  6
CONTINUOUS
 62
     7
 10
800.0
 20
500.0
 30
0.0
 40
83.333125000000024
 50
348.46304096718438
 51
11.53695903281538
  0
TEXT
  5
AF8
  8
SPEC
 62
     7
 10
899.99974999999995
 20
503.32919211739249
 30
0.0
 40
16.113240966796869
  1
Driver
 41
0.8
 11
899.99974999999995
 21
519.44243308418936
 31
0.0
 73
     3
  0
LINE
  5
AF9
  8
SPEC
  6
STYLE_12
 62
     7
 10
474.9999999999996
 20
333.33375000000052
 30
0.0
 11
600.0
 21
333.33375000000052
 31
0.0
  0
LINE
  5
AFA
  8
SPEC
  6
CONTINUOUS
 62
     7
 10
474.9999999999996
 20
316.66712500000062
 30
0.0
 11
600.0
 21
316.66712500000062
 31
0.0
  0
TEXT
  5
AFB
  8
SPEC
 62
     7
 10
487.56087487433791
 20
350.55397711588517
 30
0.0
 40
16.93333333333333
  1
フィルター
 41
0.8
 11
487.56087487433791
 21
367.48731044921863
 31
0.0
 73
     3
  0
LINE
  5
AFC
  8
SPEC
  6
STYLE_12
 62
     7
 10
474.9999999999996
 20
400.00025000000051
 30
0.0
 11
600.0
 21
400.00025000000051
 31
0.0
  0
LINE
  5
AFD
  8
SPEC
  6
CONTINUOUS
 62
     7
 10
474.9999999999996
 20
416.66687500000018
 30
0.0
 11
600.0
 21
416.66687500000018
 31
0.0
  0
LINE
  5
AFE
  8
SPEC
  6
CONTINUOUS
 62
     7
 10
474.9999999999996
 20
450.00012500000031
 30
0.0
 11
600.0
 21
450.00012500000031
 31
0.0
  0
LINE
  5
AFF
  8
SPEC
  6
STYLE_12
 62
     7
 10
474.9999999999996
 20
466.66675000000032
 30
0.0
 11
600.0
 21
466.66675000000032
 31
0.0
  0
TEXT
  5
B00
  8
SPEC
 62
     7
 10
487.56087487433791
 20
483.88697711588588
 30
0.0
 40
16.93333333333333
  1
フィルター
 41
0.8
 11
487.56087487433791
 21
500.82031044921922
 31
0.0
 73
     3
  0
LINE
  5
B01
  8
SPEC
  6
CONTINUOUS
 62
     7
 10
150.0
 20
333.33379166666521
 30
0.0
 11
474.9999999999996
 21
333.33324999999991
 31
0.0
  0
LINE
  5
B02
  8
SPEC
  6
CONTINUOUS
 62
     7
 10
225.0
 20
500.0
 30
0.0
 11
400.0
 21
500.0
 31
0.0
  0
LINE
  5
B03
  8
SPEC
  6
CONTINUOUS
 62
     7
 10
91.666812500000205
 20
333.3337500000012
 30
0.0
 11
108.3334375000002
 21
333.3337500000012
 31
0.0
  0
LINE
  5
B04
  8
SPEC
  6
CONTINUOUS
 62
     7
 10
131.25000000000031
 20
323.9587500000012
 30
0.0
 11
150.0
 21
333.3337500000012
 31
0.0
  0
LINE
  5
B05
  8
SPEC
  6
CONTINUOUS
 62
     7
 10
131.25000000000031
 20
342.7087500000012
 30
0.0
 11
150.0
 21
333.3337500000012
 31
0.0
  0
TEXT
  5
B06
  8
SPEC
 62
     7
 10
116.6667500000007
 20
433.3334999999999
 30
0.0
 40
20.624948437499992
  1
INPUT
 41
0.8
 11
116.6667500000007
 21
453.95844843750001
 31
0.0
 73
     3
  0
LINE
  5
B07
  8
SPEC
  6
CONTINUOUS
 62
     7
 10
458.33487499999961
 20
170.83324999999991
 30
0.0
 11
608.33487499999978
 21
170.83324999999991
 31
0.0
  0
TEXT
  5
B08
  8
SPEC
 62
     7
 10
487.56087487433791
 20
376.92109869791642
 30
0.0
 40
16.93333333333333
  1
ローパス
 41
0.8
 11
487.56087487433791
 21
393.8544320312497
 31
0.0
 73
     3
  0
TEXT
  5
B09
  8
SPEC
 62
     7
 10
489.95449385880403
 20
187.49987499999989
 30
0.0
 40
25.781185546875001
  1
接続図
 41
0.8
 11
489.95449385880403
 21
213.28106054687501
 31
0.0
 73
     3
  0
LINE
  5
B0A
  8
SPEC
  6
CONTINUOUS
 62
     7
 10
449.99937499999942
 20
333.33375000000052
 30
0.0
 11
449.99937499999942
 21
466.66675000000032
 31
0.0
  0
LINE
  5
B0B
  8
SPEC
  6
CONTINUOUS
 62
     7
 10
474.9999999999996
 20
316.66712500000062
 30
0.0
 11
474.9999999999996
 21
416.66687500000029
 31
0.0
  0
CIRCLE
  5
B0C
  8
SPEC
  6
CONTINUOUS
 62
     7
 10
449.99937499999942
 20
333.33374999999938
 30
0.0
 40
3.5156162109374232
  0
LINE
  5
B0D
  8
SPEC
  6
CONTINUOUS
 62
     7
 10
433.33274999999958
 20
400.00025000000051
 30
0.0
 11
474.9999999999996
 21
400.00025000000051
 31
0.0
  0
LINE
  5
B0E
  8
SPEC
  6
CONTINUOUS
 62
     7
 10
449.99937499999942
 20
466.66675000000032
 30
0.0
 11
474.9999999999996
 21
466.66675000000032
 31
0.0
  0
LINE
  5
B0F
  8
SPEC
  6
CONTINUOUS
 62
     7
 10
847.14033422797252
 20
483.33337499999948
 30
0.0
 11
881.64945396862731
 21
483.33337499999948
 31
0.0
  0
ARC
  5
B10
  8
SPEC
  6
CONTINUOUS
 62
     7
 10
870.73010523976802
 20
262.6036447602321
 30
0.0
 40
10.66663999999998
 50
273.13639239527521
 51
356.8636076047211
  0
ARC
  5
B11
  8
SPEC
  6
CONTINUOUS
 62
     7
 10
870.73010523976802
 20
404.0638552397686
 30
0.0
 40
10.666639999999999
 50
3.1363923952777131
 51
86.86360760472229
  0
CIRCLE
  5
B12
  8
SPEC
  6
CONTINUOUS
 62
     7
 10
800.0
 20
333.33375000000052
 30
0.0
 40
77.333140000000185
  0
ARC
  5
B13
  8
SPEC
  6
CONTINUOUS
 62
     7
 10
799.99999999999955
 20
1553.4140331249951
 30
0.0
 40
1303.413408124994
 50
266.86360760472212
 51
273.1363923952776
  0
LINE
  5
B14
  8
SPEC
  6
CONTINUOUS
 62
     7
 10
845.11833355699309
 20
311.78558355699357
 30
0.0
 11
856.44511788558384
 21
300.45879922840322
 31
0.0
  0
LINE
  5
B15
  8
SPEC
  6
CONTINUOUS
 62
     7
 10
845.11833355699309
 20
354.88191644300713
 30
0.0
 11
856.44511788558225
 21
366.20870077159651
 31
0.0
  0
ARC
  5
B16
  8
SPEC
  6
CONTINUOUS
 62
     7
 10
799.99999999999955
 20
-886.74653312499379
 30
0.0
 40
1303.413408124994
 50
86.863607604722105
 51
93.136392395277795
  0
TEXT
  5
B17
  8
SPEC
 62
     7
 10
823.33327500000019
 20
191.6665625000004
 30
0.0
 40
17.187457031249998
  1
RED
 41
0.8
 11
823.33327500000019
 21
208.8540195312504
 31
0.0
 73
     3
  0
ARC
  5
B18
  8
SPEC
  6
CONTINUOUS
 62
     7
 10
2020.080283124995
 20
333.33375000000052
 30
0.0
 40
1303.413408124994
 50
176.86360760472201
 51
183.1363923952778
  0
ARC
  5
B19
  8
SPEC
  6
CONTINUOUS
 62
     7
 10
800.0
 20
333.33375000000052
 30
0.0
 40
68.718255297560034
 50
62.019655054720481
 51
117.9803449452782
  0
LINE
  5
B1A
  8
SPEC
  6
CONTINUOUS
 62
     7
 10
600.0
 20
316.66712500000062
 30
0.0
 11
600.0
 21
416.66687500000018
 31
0.0
  0
CIRCLE
  5
B1B
  8
SPEC
  6
CONTINUOUS
 62
     7
 10
800.0
 20
333.33375000000052
 30
0.0
 40
49.999874999999982
  0
LINE
  5
B1C
  8
SPEC
  6
CONTINUOUS
 62
     7
 10
778.45183355699282
 20
378.45208355699361
 30
0.0
 11
767.1250492284006
 21
389.77886788558641
 31
0.0
  0
LINE
  5
B1D
  8
SPEC
  6
CONTINUOUS
 62
     7
 10
821.54816644300649
 20
378.45208355699361
 30
0.0
 11
832.87495077160236
 21
389.77886788558948
 31
0.0
  0
ARC
  5
B1E
  8
SPEC
  6
CONTINUOUS
 62
     7
 10
729.26989476023164
 20
262.6036447602321
 30
0.0
 40
10.66663999999999
 50
183.1363923952764
 51
266.86360760471968
  0
CIRCLE
  5
B1F
  8
SPEC
  6
CONTINUOUS
 62
     7
 10
800.0
 20
333.33375000000052
 30
0.0
 40
41.384990297559852
  0
LINE
  5
B20
  8
SPEC
  6
CONTINUOUS
 62
     7
 10
754.88166644300645
 20
354.88191644300713
 30
0.0
 11
743.55488211441809
 21
366.20870077159509
 31
0.0
  0
ARC
  5
B21
  8
SPEC
  6
CONTINUOUS
 62
     7
 10
741.66926874529952
 20
364.32308740247618
 30
0.0
 40
2.6666600000003151
 50
44.99999999999654
 51
152.01965505472131
  0
LINE
  5
B22
  8
SPEC
  6
CONTINUOUS
 62
     7
 10
754.88166644300645
 20
311.78558355699329
 30
0.0
 11
743.5548821144115
 21
300.4587992283976
 31
0.0
  0
ARC
  5
B23
  8
SPEC
  6
CONTINUOUS
 62
     7
 10
741.66926874529236
 20
302.34441259751679
 30
0.0
 40
2.6666600000000149
 50
207.98034494527849
 51
314.99999999999631
  0
LINE
  5
B24
  8
SPEC
  6
CONTINUOUS
 62
     7
 10
778.45183355699282
 20
288.2154164430072
 30
0.0
 11
767.12504922840378
 21
276.88863211441782
 31
0.0
  0
ARC
  5
B25
  8
SPEC
  6
CONTINUOUS
 62
     7
 10
769.0106625975227
 20
275.00301874529879
 30
0.0
 40
2.6666600000003151
 50
135.0000000000035
 51
242.0196550547256
  0
LINE
  5
B26
  8
SPEC
  6
CONTINUOUS
 62
     7
 10
821.54816644300649
 20
288.2154164430076
 30
0.0
 11
832.87495077159929
 21
276.88863211441441
 31
0.0
  0
ARC
  5
B27
  8
SPEC
  6
CONTINUOUS
 62
     7
 10
830.98933740248015
 20
275.00301874529561
 30
0.0
 40
2.6666600000001242
 50
297.98034494528281
 51
44.999999999996568
  0
ARC
  5
B28
  8
SPEC
  6
CONTINUOUS
 62
     7
 10
800.0
 20
333.33375000000052
 30
0.0
 40
68.718255297559935
 50
152.01965505472339
 51
207.9803449452794
  0
ARC
  5
B29
  8
SPEC
  6
CONTINUOUS
 62
     7
 10
800.0
 20
333.33375000000052
 30
0.0
 40
68.718255297559935
 50
242.0196550547229
 51
297.9803449452782
  0
LINE
  5
B2A
  8
SPEC
  6
CONTINUOUS
 62
     7
 10
790.00002499999982
 20
280.00055000000009
 30
0.0
 11
790.00002499999982
 21
284.34407761882397
 31
0.0
  0
LINE
  5
B2B
  8
SPEC
  6
CONTINUOUS
 62
     7
 10
780.0000500000001
 20
280.0005500000006
 30
0.0
 11
780.0000500000001
 21
287.50810761483461
 31
0.0
  0
LINE
  5
B2C
  8
SPEC
  6
CONTINUOUS
 62
     7
 10
819.99994999999944
 20
280.00055000000037
 30
0.0
 11
809.99997499999961
 21
280.00055000000009
 31
0.0
  0
LINE
  5
B2D
  8
SPEC
  6
CONTINUOUS
 62
     7
 10
809.99997499999961
 20
280.00055000000009
 30
0.0
 11
809.99997499999961
 21
284.34407761882397
 31
0.0
  0
LINE
  5
B2E
  8
SPEC
  6
CONTINUOUS
 62
     7
 10
819.99994999999944
 20
280.0005500000006
 30
0.0
 11
819.99994999999944
 21
287.50810761483461
 31
0.0
  0
LINE
  5
B2F
  8
SPEC
  6
CONTINUOUS
 62
     7
 10
780.0000500000001
 20
280.00055000000037
 30
0.0
 11
790.00002499999982
 21
280.00055000000009
 31
0.0
  0
TEXT
  5
B30
  8
SPEC
 62
     7
 10
778.82839028007083
 20
300.00049999999987
 30
0.0
 40
20.624948437499992
  1
-
 41
0.8
 11
778.82839028007083
 21
320.62544843749998
 31
0.0
 73
     3
  0
TEXT
  5
B31
  8
SPEC
 62
     7
 10
808.82831528007046
 20
300.00049999999987
 30
0.0
 40
20.624948437499992
  1
+
 41
0.8
 11
808.82831528007046
 21
320.62544843749998
 31
0.0
 73
     3
  0
LINE
  5
B32
  8
SPEC
  6
CONTINUOUS
 62
     7
 10
785.00003749999985
 20
200.00075000000041
 30
0.0
 11
785.00003749999985
 21
280.00055000000009
 31
0.0
  0
TEXT
  5
B33
  8
SPEC
 62
     7
 10
741.29218266434191
 20
208.33406250000041
 30
0.0
 40
17.187457031249998
  1
BLK
 41
0.8
 11
741.29218266434191
 21
225.5215195312505
 31
0.0
 73
     3
  0
ARC
  5
B34
  8
SPEC
  6
CONTINUOUS
 62
     7
 10
769.01066259751951
 20
391.66448125470561
 30
0.0
 40
2.6666599999999101
 50
117.9803449452742
 51
225.0000000000035
  0
ARC
  5
B35
  8
SPEC
  6
CONTINUOUS
 62
     7
 10
830.98933740248333
 20
391.66448125470851
 30
0.0
 40
2.6666600000003151
 50
315.00000000000352
 51
62.019655054717028
  0
LINE
  5
B36
  8
SPEC
  6
CONTINUOUS
 62
     7
 10
700.0014999999994
 20
200.00075000000041
 30
0.0
 11
700.0014999999994
 21
333.33375000000052
 31
0.0
  0
LINE
  5
B37
  8
SPEC
  6
CONTINUOUS
 62
     7
 10
700.0014999999994
 20
200.00075000000041
 30
0.0
 11
785.00003749999985
 21
200.00075000000041
 31
0.0
  0
TEXT
  5
B38
  8
SPEC
 62
     7
 10
618.63907156102528
 20
341.66706249999999
 30
0.0
 40
17.187457031249998
  1
L.F.-
 41
0.8
 11
618.63907156102528
 21
358.85451953124999
 31
0.0
 73
     3
  0
LINE
  5
B39
  8
SPEC
  6
CONTINUOUS
 62
     7
 10
600.0
 20
333.33375000000001
 30
0.0
 11
700.00149999999894
 21
333.33375000000001
 31
0.0
  0
ARC
  5
B3A
  8
SPEC
  6
CONTINUOUS
 62
     7
 10
729.26989476023164
 20
404.0638552397686
 30
0.0
 40
10.666639999999999
 50
93.136392395277724
 51
176.8636076047211
  0
TEXT
  5
B3B
  8
SPEC
 62
     7
 10
618.63907156102528
 20
408.3335625000002
 30
0.0
 40
17.187457031249998
  1
L.F.+
 41
0.8
 11
618.63907156102528
 21
425.5210195312502
 31
0.0
 73
     3
  0
LINE
  5
B3C
  8
SPEC
  6
CONTINUOUS
 62
     7
 10
600.0
 20
400.00025000000011
 30
0.0
 11
683.33487499999967
 21
400.00025000000011
 31
0.0
  0
LINE
  5
B3D
  8
SPEC
  6
CONTINUOUS
 62
     7
 10
718.35054603137257
 20
483.33337499999948
 30
0.0
 11
752.85966577202669
 21
483.33337499999948
 31
0.0
  0
CIRCLE
  5
B3E
  8
SPEC
  6
CONTINUOUS
 62
     7
 10
725.0001874999997
 20
500.0
 30
0.0
 40
2.666659999999863
  0
LINE
  5
B3F
  8
SPEC
  6
CONTINUOUS
 62
     7
 10
790.00002500000028
 20
462.66676000000012
 30
0.0
 11
809.99997499999961
 21
462.66676000000012
 31
0.0
  0
LINE
  5
B40
  8
SPEC
  6
CONTINUOUS
 62
     7
 10
790.00002500000028
 20
468.20210611436852
 30
0.0
 11
790.00002500000028
 21
462.66676000000012
 31
0.0
  0
LINE
  5
B41
  8
SPEC
  6
CONTINUOUS
 62
     7
 10
809.99997499999961
 20
468.20210611436852
 30
0.0
 11
809.99997499999961
 21
462.66676000000012
 31
0.0
  0
TEXT
  5
B42
  8
SPEC
 62
     7
 10
618.63907156102562
 20
475.00006250000001
 30
0.0
 40
17.187457031249998
  1
H.F.-
 41
0.8
 11
618.63907156102562
 21
492.18751953125002
 31
0.0
 73
     3
  0
LINE
  5
B43
  8
SPEC
  6
CONTINUOUS
 62
     7
 10
600.0
 20
466.66674999999969
 30
0.0
 11
800.0
 21
466.66674999999969
 31
0.0
  0
TEXT
  5
B44
  8
SPEC
 62
     7
 10
691.66700000000014
 20
441.66681249999948
 30
0.0
 40
17.187457031249998
  1
BLK
 41
0.8
 11
691.66700000000014
 21
458.85426953124949
 31
0.0
 73
     3
  0
TEXT
  5
B45
  8
SPEC
 62
     7
 10
747.91681250000033
 20
441.66681249999942
 30
0.0
 40
20.624948437499992
  1
-
 41
0.8
 11
747.91681250000033
 21
462.29176093749948
 31
0.0
 73
     3
  0
LINE
  5
B46
  8
SPEC
  6
CONTINUOUS
 62
     7
 10
683.33487499999967
 20
183.33324999999999
 30
0.0
 11
814.99996250000027
 21
183.33324999999999
 31
0.0
  0
LINE
  5
B47
  8
SPEC
  6
CONTINUOUS
 62
     7
 10
683.3348749999991
 20
183.33325000000039
 30
0.0
 11
683.33487499999967
 21
400.00025000000011
 31
0.0
  0
LINE
  5
B48
  8
SPEC
  6
CONTINUOUS
 62
     7
 10
814.99996249999879
 20
183.33324999999999
 30
0.0
 11
814.9999624999997
 21
280.00055000000009
 31
0.0
  0
ARC
  5
B49
  8
SPEC
  6
CONTINUOUS
 62
     7
 10
858.33073125470219
 20
302.34441259752202
 30
0.0
 40
2.6666599999999918
 50
225.0000000000035
 51
332.01965505472123
  0
ARC
  5
B4A
  8
SPEC
  6
CONTINUOUS
 62
     7
 10
858.33073125470105
 20
364.3230874024776
 30
0.0
 40
2.6666599999999101
 50
27.98034494527435
 51
134.9999999999965
  0
ARC
  5
B4B
  8
SPEC
  6
CONTINUOUS
 62
     7
 10
800.0
 20
333.33375000000052
 30
0.0
 40
68.718255297559963
 50
332.01965505472248
 51
27.98034494527689
  0
CIRCLE
  5
B4C
  8
SPEC
  6
CONTINUOUS
 62
     7
 10
874.99981250000064
 20
500.0
 30
0.0
 40
2.666659999999863
  0
ARC
  5
B4D
  8
SPEC
  6
CONTINUOUS
 62
     7
 10
-420.08028312499471
 20
333.3337500000008
 30
0.0
 40
1303.413408124994
 50
356.86360760472218
 51
3.1363923952778232
  0
TEXT
  5
B4E
  8
SPEC
 62
     7
 10
899.99974999999995
 20
369.99619211739281
 30
0.0
 40
16.113240966796869
  1
Driver
 41
0.8
 11
899.99974999999995
 21
386.10943308418967
 31
0.0
 73
     3
  0
TEXT
  5
B4F
  8
SPEC
 62
     7
 10
899.99974999999995
 20
350.00037500000042
 30
0.0
 40
16.113240966796869
  1
Low Freq
 41
0.8
 11
899.99974999999995
 21
366.11361596679728
 31
0.0
 73
     3
  0
TEXT
  5
B50
  8
SPEC
 62
     7
 10
899.99974999999995
 20
483.33337499999971
 30
0.0
 40
16.113240966796869
  1
High Freq
 41
0.8
 11
899.99974999999995
 21
499.44661596679663
 31
0.0
 73
     3
  0
TEXT
  5
B51
  8
SPEC
 62
     7
 10
899.99974999999995
 20
463.33755788260783
 30
0.0
 40
16.113240966796869
  1
13mm
 41
0.8
 11
899.99974999999995
 21
479.45079884940469
 31
0.0
 73
     3
  0
TEXT
  5
B52
  8
SPEC
 62
     7
 10
899.99974999999995
 20
330.00455788260859
 30
0.0
 40
16.113240966796869
  1
88mm
 41
0.8
 11
899.99974999999995
 21
346.11779884940552
 31
0.0
 73
     3
  0
LINE
  5
B53
  8
SPEC
  6
STYLE_12
 62
     7
 10
474.9999999999996
 20
533.33325000000059
 30
0.0
 11
600.0
 21
533.33325000000002
 31
0.0
  0
LINE
  5
B54
  8
SPEC
  6
CONTINUOUS
 62
     7
 10
474.9999999999996
 20
549.99987500000066
 30
0.0
 11
600.0
 21
549.99987500000066
 31
0.0
  0
LINE
  5
B55
  8
SPEC
  6
CONTINUOUS
 62
     7
 10
225.0
 20
566.66650000000004
 30
0.0
 11
400.0
 21
566.66650000000004
 31
0.0
  0
TEXT
  5
B56
  8
SPEC
 62
     7
 10
237.1338056563219
 20
536.71236588541672
 30
0.0
 40
16.93333333333333
  1
ソニックガード
 41
0.8
 11
237.1338056563219
 21
553.64569921875
 31
0.0
 73
     3
  0
LINE
  5
B57
  8
SPEC
  6
CONTINUOUS
 62
     7
 10
150.0
 20
533.33324999999991
 30
0.0
 11
225.0
 21
533.33324999999945
 31
0.0
  0
LINE
  5
B58
  8
SPEC
  6
CONTINUOUS
 62
     7
 10
100.00012500000081
 20
524.99993749999976
 30
0.0
 11
100.00012500000081
 21
541.66656250000005
 31
0.0
  0
LINE
  5
B59
  8
SPEC
  6
CONTINUOUS
 62
     7
 10
91.666812500000205
 20
533.33324999999991
 30
0.0
 11
108.3334375000002
 21
533.33324999999991
 31
0.0
  0
LINE
  5
B5A
  8
SPEC
  6
CONTINUOUS
 62
     7
 10
131.25000000000031
 20
523.95824999999991
 30
0.0
 11
150.0
 21
533.33324999999991
 31
0.0
  0
LINE
  5
B5B
  8
SPEC
  6
CONTINUOUS
 62
     7
 10
131.25000000000031
 20
542.70825000000002
 30
0.0
 11
150.0
 21
533.33324999999991
 31
0.0
  0
CIRCLE
  5
B5C
  8
SPEC
  6
CONTINUOUS
 62
     7
 10
433.33274999999958
 20
533.33324999999945
 30
0.0
 40
3.5156162109374232
  0
LINE
  5
B5D
  8
SPEC
  6
CONTINUOUS
 62
     7
 10
400.0
 20
533.33325000000002
 30
0.0
 11
474.9999999999996
 21
533.33325000000002
 31
0.0
  0
TEXT
  5
B5E
  8
SPEC
 62
     7
 10
290.05047232298853
 20
513.58742369791628
 30
0.0
 40
16.93333333333333
  1
回路
 41
0.8
 11
290.05047232298853
 21
530.52075703124967
 31
0.0
 73
     3
  0
LINE
  5
B5F
  8
SPEC
  6
CONTINUOUS
 62
     7
 10
699.99625000000015
 20
659.28186625003195
 30
0.0
 11
699.99625000000015
 21
1371.7800850000001
 31
0.0
  0
LINE
  5
B60
  8
SPEC
  6
CONTINUOUS
 62
     7
 10
847.1403342279732
 20
516.66662499999984
 30
0.0
 11
881.64945396862731
 21
516.66662499999984
 31
0.0
  0
TEXT
  5
B61
  8
SPEC
 62
     7
 10
747.91681250000011
 20
541.66656249999971
 30
0.0
 40
20.624948437499992
  1
+
 41
0.8
 11
747.91681250000011
 21
562.29151093749965
 31
0.0
 73
     3
  0
TEXT
  5
B62
  8
SPEC
 62
     7
 10
691.66699999999969
 20
541.66656249999949
 30
0.0
 40
17.187457031249998
  1
BLUE
 41
0.8
 11
691.66699999999969
 21
558.85401953124961
 31
0.0
 73
     3
  0
LINE
  5
B63
  8
SPEC
  6
CONTINUOUS
 62
     7
 10
718.35054603137257
 20
516.66662499999984
 30
0.0
 11
752.85966577202669
 21
516.66662499999984
 31
0.0
  0
LINE
  5
B64
  8
SPEC
  6
CONTINUOUS
 62
     7
 10
790.00002500000028
 20
537.33323999999971
 30
0.0
 11
809.99997499999961
 21
537.33323999999971
 31
0.0
  0
LINE
  5
B65
  8
SPEC
  6
CONTINUOUS
 62
     7
 10
790.00002500000028
 20
531.79789388563108
 30
0.0
 11
790.00002500000028
 21
537.33323999999971
 31
0.0
  0
LINE
  5
B66
  8
SPEC
  6
CONTINUOUS
 62
     7
 10
809.99997499999961
 20
531.79789388563108
 30
0.0
 11
809.99997499999961
 21
537.33323999999971
 31
0.0
  0
TEXT
  5
B67
  8
SPEC
 62
     7
 10
618.63907156102562
 20
541.66656249999994
 30
0.0
 40
17.187457031249998
  1
H.F.+
 41
0.8
 11
618.63907156102562
 21
558.85401953124995
 31
0.0
 73
     3
  0
LINE
  5
B68
  8
SPEC
  6
CONTINUOUS
 62
     7
 10
600.0
 20
533.33325000000002
 30
0.0
 11
800.0
 21
533.33325000000002
 31
0.0
  0
TEXT
  5
B69
  8
SPEC
 62
     7
 10
-391.0008124999992
 20
1342.9989145166001
 30
0.0
 40
21.4843212890625
  1
2Wayスピーカ (Ultra-Compact Indoor/Outdoor Background/Foreground Speaker)
 41
0.8
 11
-391.0008124999992
 21
1364.4832358056631
 31
0.0
 73
     3
  0
TEXT
  5
B6A
  8
SPEC
 62
     7
 10
-716.00000000000387
 20
780.50032076663365
 30
0.0
 40
21.4843212890625
  1
可変振り角度（スピーカ）
 41
0.8
 11
-716.00000000000387
 21
801.9846420556961
 31
0.0
 73
     3
  0
TEXT
  5
B6B
  8
SPEC
 62
     7
 10
-716.00000000000477
 20
818.00022701664204
 30
0.0
 40
21.4843212890625
  1
コネクター
 41
0.8
 11
-716.00000000000477
 21
839.48454830570449
 31
0.0
 73
     3
  0
TEXT
  5
B6C
  8
SPEC
 62
     7
 10
-716.00000000000364
 20
743.00041451663367
 30
0.0
 40
21.4843212890625
  1
寸法
 41
0.8
 11
-716.00000000000364
 21
764.48473580569612
 31
0.0
 73
     3
  0
TEXT
  5
B6D
  8
SPEC
 62
     7
 10
-715.99999999999829
 20
705.50050826663335
 30
0.0
 40
21.4843212890625
  1
重量
 41
0.8
 11
-715.99999999999829
 21
726.9848295556958
 31
0.0
 73
     3
  0
TEXT
  5
B6E
  8
SPEC
 62
     7
 10
-715.99999999999829
 20
668.00060201663291
 30
0.0
 40
21.4843212890625
  1
付属品
 41
0.8
 11
-715.99999999999829
 21
689.48492330569525
 31
0.0
 73
     3
  0
TEXT
  5
B6F
  8
SPEC
 62
     7
 10
-716.00000000000443
 20
855.50013326663304
 30
0.0
 40
21.4843212890625
  1
メンテナンス
 41
0.8
 11
-716.00000000000443
 21
876.98445455569549
 31
0.0
 73
     3
  0
TEXT
  5
B70
  8
SPEC
 62
     7
 10
-716.0000000000008
 20
1305.4990082666011
 30
0.0
 40
21.4843212890625
  1
周波数レンジ (-10dB)
 41
0.8
 11
-716.0000000000008
 21
1326.9833295556641
 31
0.0
 73
     3
  0
TEXT
  5
B71
  8
SPEC
 62
     7
 10
-716.00000000000011
 20
1342.9989145166001
 30
0.0
 40
21.4843212890625
  1
形式
 41
0.8
 11
-716.00000000000011
 21
1364.4832358056631
 31
0.0
 73
     3
  0
TEXT
  5
B72
  8
SPEC
 62
     7
 10
-716.00000000000125
 20
1267.999102016601
 30
0.0
 40
21.4843212890625
  1
公称カバレージ
 41
0.8
 11
-716.00000000000125
 21
1289.483423305664
 31
0.0
 73
     3
  0
TEXT
  5
B73
  8
SPEC
 62
     7
 10
-716.00000000000671
 20
1230.499195766597
 30
0.0
 40
21.4843212890625
  1
低域ユニット
 41
0.8
 11
-716.00000000000671
 21
1251.9835170556589
 31
0.0
 73
     3
  0
TEXT
  5
B74
  8
SPEC
 62
     7
 10
-716.00000000000171
 20
1192.9992895165981
 30
0.0
 40
21.4843212890625
  1
高域ユニット
 41
0.8
 11
-716.00000000000171
 21
1214.4836108056611
 31
0.0
 73
     3
  0
TEXT
  5
B75
  8
SPEC
 62
     7
 10
-716.00000000000239
 20
1155.499383266595
 30
0.0
 40
21.4843212890625
  1
音圧レベル (1W/1m)
 41
0.8
 11
-716.00000000000239
 21
1176.9837045556581
 31
0.0
 73
     3
  0
TEXT
  5
B76
  8
SPEC
 62
     7
 10
-716.00000000000523
 20
1117.999477016604
 30
0.0
 40
21.4843212890625
  1
公称インピーダンス
 41
0.8
 11
-716.00000000000523
 21
1139.4837983056671
 31
0.0
 73
     3
  0
TEXT
  5
B77
  8
SPEC
 62
     7
 10
-716.00000000000477
 20
1080.4995707666101
 30
0.0
 40
21.4843212890625
  1
許容入力
 41
0.8
 11
-716.00000000000477
 21
1101.9838920556731
 31
0.0
 73
     3
  0
TEXT
  5
B78
  8
SPEC
 62
     7
 10
-716.00000000000671
 20
1042.99966451661
 30
0.0
 40
21.4843212890625
  1
クロスオーバー
 41
0.8
 11
-716.00000000000671
 21
1064.483985805673
 31
0.0
 73
     3
  0
TEXT
  5
B79
  8
SPEC
 62
     7
 10
-716.00000000000477
 20
1005.499758266624
 30
0.0
 40
21.4843212890625
  1
耐候性規格
 41
0.8
 11
-716.00000000000477
 21
1026.984079555687
 31
0.0
 73
     3
  0
TEXT
  5
B7A
  8
SPEC
 62
     7
 10
-716.00000000000477
 20
967.9998520166256
 30
0.0
 40
21.4843212890625
  1
外装色
 41
0.8
 11
-716.00000000000477
 21
989.48417330568805
 31
0.0
 73
     3
  0
TEXT
  5
B7B
  8
SPEC
 62
     7
 10
-716.00000000000477
 20
893.0000395166295
 30
0.0
 40
21.4843212890625
  1
極性
 41
0.8
 11
-716.00000000000477
 21
914.48436080569195
 31
0.0
 73
     3
  0
TEXT
  5
B7C
  8
SPEC
 62
     7
 10
-391.0008124999984
 20
855.50013326663304
 30
0.0
 40
21.4843212890625
  1
SPユニットは前面側で交換
 41
0.8
 11
-391.0008124999984
 21
876.98445455569549
 31
0.0
 73
     3
  0
TEXT
  5
B7D
  8
SPEC
 62
     7
 10
-391.00081250000079
 20
780.50032076663365
 30
0.0
 40
21.4843212890625
  1
横方向 : 44゜ , 縦方向 : 37゜
 41
0.8
 11
-391.00081250000079
 21
801.9846420556961
 31
0.0
 73
     3
  0
TEXT
  5
B7E
  8
SPEC
 62
     7
 10
-391.0008124999988
 20
818.00022701664204
 30
0.0
 40
21.4843212890625
  1
プッシュ式ターミナル
 41
0.8
 11
-391.0008124999988
 21
839.48454830570449
 31
0.0
 73
     3
  0
TEXT
  5
B7F
  8
SPEC
 62
     7
 10
-391.00081249999761
 20
743.00041451663367
 30
0.0
 40
21.4843212890625
  1
140(W)×191(H)×112(D)mm
 41
0.8
 11
-391.00081249999761
 21
764.48473580569612
 31
0.0
 73
     3
  0
TEXT
  5
B80
  8
SPEC
 62
     7
 10
-391.00081249999772
 20
705.50050826663335
 30
0.0
 40
21.4843212890625
  1
約1.8kg(1本,金具等含まず)
 41
0.8
 11
-391.00081249999772
 21
726.9848295556958
 31
0.0
 73
     3
  0
TEXT
  5
B81
  8
SPEC
 62
     7
 10
-391.00081250000079
 20
1005.499758266624
 30
0.0
 40
21.4843212890625
  1
Mil-Std 810 , IPX4 Per IEC 529 (全天候型)
 41
0.8
 11
-391.00081250000079
 21
1026.984079555687
 31
0.0
 73
     3
  0
TEXT
  5
B82
  8
SPEC
 62
     7
 10
-391.00081250000079
 20
1230.4991957665979
 30
0.0
 40
21.4843212890625
  1
88mm (口径 : 3.5インチ)
 41
0.8
 11
-391.00081250000079
 21
1251.983517055661
 31
0.0
 73
     3
  0
TEXT
  5
B83
  8
SPEC
 62
     7
 10
-391.00081250000119
 20
1192.9992895165981
 30
0.0
 40
21.4843212890625
  1
13mm (ダイアフラム径 : 0.5インチ)
 41
0.8
 11
-391.00081250000119
 21
1214.4836108056611
 31
0.0
 73
     3
  0
TEXT
  5
B84
  8
SPEC
 62
     7
 10
-391.0008124999988
 20
893.0000395166295
 30
0.0
 40
21.4843212890625
  1
正相 (低域) , 正相 (高域)
 41
0.8
 11
-391.0008124999988
 21
914.48436080569195
 31
0.0
 73
     3
  0
TEXT
  5
B85
  8
SPEC
 62
     7
 10
-391.00081250000079
 20
938.6665920166256
 30
0.0
 40
21.4843212890625
  1
CONTROL 23-WH: 白
 41
0.8
 11
-391.00081250000079
 21
960.15091330568805
 31
0.0
 73
     3
  0
TEXT
  5
B86
  8
SPEC
 62
     7
 10
-391.0008124999988
 20
1155.4993832665959
 30
0.0
 40
21.4843212890625
  1
86dB SPL
 41
0.8
 11
-391.0008124999988
 21
1176.983704555659
 31
0.0
 73
     3
  0
TEXT
  5
B87
  8
SPEC
 62
     7
 10
-391.00081250000142
 20
1117.999477016604
 30
0.0
 40
21.4843212890625
  1
8Ω
 41
0.8
 11
-391.00081250000142
 21
1139.4837983056671
 31
0.0
 73
     3
  0
TEXT
  5
B88
  8
SPEC
 62
     7
 10
-391.00081250000312
 20
1042.99966451661
 30
0.0
 40
21.4843212890625
  1
3.5kHz
 41
0.8
 11
-391.00081250000312
 21
1064.483985805673
 31
0.0
 73
     3
  0
TEXT
  5
B89
  8
SPEC
 62
     7
 10
-391.0008125000013
 20
1080.4995707666101
 30
0.0
 40
21.4843212890625
  1
50W
 41
0.8
 11
-391.0008125000013
 21
1101.9838920556731
 31
0.0
 73
     3
  0
TEXT
  5
B8A
  8
SPEC
 62
     7
 10
-391.00081250000079
 20
967.9998520166256
 30
0.0
 40
21.4843212890625
  1
CONTROL 23: 黒
 41
0.8
 11
-391.00081250000079
 21
989.48417330568805
 31
0.0
 73
     3
  0
TEXT
  5
B8B
  8
SPEC
 62
     7
 10
-391.0008124999992
 20
1305.4990082666011
 30
0.0
 40
21.4843212890625
  1
85Hz～22kHz
 41
0.8
 11
-391.0008124999992
 21
1326.9833295556641
 31
0.0
 73
     3
  0
TEXT
  5
B8C
  8
SPEC
 62
     7
 10
-391.00081249999909
 20
1267.999102016601
 30
0.0
 40
21.4843212890625
  1
90゜×90゜
 41
0.8
 11
-391.00081249999909
 21
1289.4834233056631
 31
0.0
 73
     3
  0
TEXT
  5
B8D
  8
SPEC
 62
     7
 10
-391.00081249999772
 20
668.64888916669793
 30
0.0
 40
19.75555555555556
  1
Invisiball取付金具(壁用 1本:約40g),六角レンチ
 41
0.8
 11
-391.00081249999772
 21
688.40444472225352
 31
0.0
 73
     3
  0
TEXT
  5
B8E
  8
DIMNSIONS
 62
     7
 10
-736.66666666666652
 20
-430.25337666666678
 30
0.0
 40
22.577777777777762
  1
可変振り角度（スピーカ）横方向
 41
0.8
 11
-736.66666666666652
 21
-407.675598888889
 31
0.0
 73
     3
  0
TEXT
  5
B8F
  8
DIMNSIONS
 62
     7
 10
-425.0
 20
-705.25337666666678
 30
0.0
 40
22.577777777777762
  1
可変振り角度
 41
0.8
 11
-425.0
 21
-682.675598888889
 31
0.0
 73
     3
  0
TEXT
  5
B90
  8
DIMNSIONS
 62
     7
 10
-435.29974999999979
 20
-744.61391055555555
 30
0.0
 40
22.577777777777762
  1
（スピーカ）縦方向
 41
0.8
 11
-435.29974999999979
 21
-722.03613277777765
 31
0.0
 73
     3
  0
TEXT
  5
B91
  8
DIMNSIONS
 62
     7
 10
-50.001875000000069
 20
-1015.713946249999
 30
0.0
 40
21.484321289062478
  1
(単位 : mm)
 41
0.8
 11
-50.001875000000069
 21
-994.22962496093749
 31
0.0
 73
     3
  0
LINE
  5
B92
  8
DIMNSIONS
  6
CONTINUOUS
 62
     7
 10
-590.24975000000006
 20
294.78671000000043
 30
0.0
 11
-670.0
 21
294.78671000000043
 31
0.0
  0
LINE
  5
B93
  8
DIMNSIONS
  6
CONTINUOUS
 62
     7
 10
-609.99975000000006
 20
346.7867100000006
 30
0.0
 11
-670.0
 21
346.7867100000006
 31
0.0
  0
LINE
  5
B94
  8
DIMNSIONS
 62
     7
 10
-650.0
 20
294.78671000000043
 30
0.0
 11
-656.7003979515024
 21
319.79293558593793
 31
0.0
  0
LINE
  5
B95
  8
DIMNSIONS
 62
     7
 10
-650.0
 20
294.78671000000043
 30
0.0
 11
-643.2996020484976
 21
319.79293558593793
 31
0.0
  0
LINE
  5
B96
  8
DIMNSIONS
 62
     7
 10
-650.0
 20
346.7867100000006
 30
0.0
 11
-643.2996020484976
 21
321.78048441406321
 31
0.0
  0
LINE
  5
B97
  8
DIMNSIONS
 62
     7
 10
-650.0
 20
346.7867100000006
 30
0.0
 11
-656.7003979515024
 21
321.78048441406321
 31
0.0
  0
LINE
  5
B98
  8
DIMNSIONS
  6
CONTINUOUS
 62
     7
 10
-650.0
 20
294.78671000000043
 30
0.0
 11
-650.0
 21
346.7867100000006
 31
0.0
  0
TEXT
  5
B99
  8
DIMNSIONS
 62
     7
 10
-662.05555555555543
 20
303.14782111111163
 30
0.0
 40
28.222222222222211
  1
52
 50
90.0
 41
0.8
 11
-690.27777777777749
 21
303.14782111111163
 31
0.0
 73
     3
  0
LINE
  5
B9A
  8
DIMNSIONS
  6
CONTINUOUS
 62
     7
 10
-609.99975000000006
 20
245.2867100000004
 30
0.0
 11
-670.0
 21
245.2867100000004
 31
0.0
  0
LINE
  5
B9B
  8
DIMNSIONS
  6
CONTINUOUS
 62
     7
 10
-609.99975000000006
 20
171.7867100000004
 30
0.0
 11
-670.0
 21
171.7867100000004
 31
0.0
  0
LINE
  5
B9C
  8
DIMNSIONS
 62
     7
 10
-650.0
 20
245.2867100000004
 30
0.0
 11
-643.2996020484976
 21
220.2804844140629
 31
0.0
  0
LINE
  5
B9D
  8
DIMNSIONS
 62
     7
 10
-650.0
 20
245.2867100000004
 30
0.0
 11
-656.7003979515024
 21
220.2804844140629
 31
0.0
  0
LINE
  5
B9E
  8
DIMNSIONS
 62
     7
 10
-650.0
 20
171.7867100000004
 30
0.0
 11
-656.7003979515024
 21
196.7929355859379
 31
0.0
  0
LINE
  5
B9F
  8
DIMNSIONS
 62
     7
 10
-650.0
 20
171.7867100000004
 30
0.0
 11
-643.2996020484976
 21
196.7929355859379
 31
0.0
  0
LINE
  5
BA0
  8
DIMNSIONS
  6
CONTINUOUS
 62
     7
 10
-650.0
 20
245.2867100000004
 30
0.0
 11
-650.0
 21
171.7867100000004
 31
0.0
  0
TEXT
  5
BA1
  8
DIMNSIONS
 62
     7
 10
-662.05555555555543
 20
173.25893222222251
 30
0.0
 40
28.222222222222211
  1
73.5
 50
90.0
 41
0.8
 11
-690.27777777777749
 21
173.25893222222251
 31
0.0
 73
     3
  0
LINE
  5
BA2
  8
DIMNSIONS
  6
CONTINUOUS
 62
     7
 10
-599.99975000000006
 20
161.7867100000004
 30
0.0
 11
-599.99975000000006
 21
80.000000000000099
 31
0.0
  0
LINE
  5
BA3
  8
DIMNSIONS
  6
CONTINUOUS
 62
     7
 10
-560.49975000000018
 20
161.7867100000004
 30
0.0
 11
-560.49975000000018
 21
80.000000000000099
 31
0.0
  0
LINE
  5
BA4
  8
DIMNSIONS
  6
CONTINUOUS
 62
     7
 10
-560.49975000000018
 20
100.0000000000001
 30
0.0
 11
-599.99975000000006
 21
100.0000000000001
 31
0.0
  0
LINE
  5
BA5
  8
DIMNSIONS
 62
     7
 10
-599.99975000000006
 20
100.0000000000001
 30
0.0
 11
-625.00597558593768
 21
93.299602048497675
 31
0.0
  0
LINE
  5
BA6
  8
DIMNSIONS
 62
     7
 10
-599.99975000000006
 20
100.0000000000001
 30
0.0
 11
-625.00597558593768
 21
106.7003979515025
 31
0.0
  0
LINE
  5
BA7
  8
DIMNSIONS
  6
CONTINUOUS
 62
     7
 10
-599.99975000000006
 20
100.0000000000001
 30
0.0
 11
-708.2909942053243
 21
100.0000000000001
 31
0.0
  0
LINE
  5
BA8
  8
DIMNSIONS
 62
     7
 10
-560.49975000000018
 20
100.0000000000001
 30
0.0
 11
-535.49352441406268
 21
106.7003979515025
 31
0.0
  0
LINE
  5
BA9
  8
DIMNSIONS
 62
     7
 10
-560.49975000000018
 20
100.0000000000001
 30
0.0
 11
-535.49352441406268
 21
93.299602048497675
 31
0.0
  0
LINE
  5
BAA
  8
DIMNSIONS
  6
CONTINUOUS
 62
     7
 10
-560.49975000000018
 20
100.0000000000001
 30
0.0
 11
-510.49975000000018
 21
100.0000000000001
 31
0.0
  0
TEXT
  5
BAB
  8
DIMNSIONS
 62
     7
 10
-708.2909942053243
 20
112.0555555555555
 30
0.0
 40
28.222222222222211
  1
39.5
 41
0.8
 11
-708.2909942053243
 21
140.2777777777778
 31
0.0
 73
     3
  0
LINE
  5
BAC
  8
DIMNSIONS
 62
     7
 10
-379.0276966124585
 20
175.36392171243199
 30
0.0
 11
-364.72598930172808
 21
155.67931033807201
 31
0.0
  0
LINE
  5
BAD
  8
DIMNSIONS
 62
     7
 10
-379.0276966124585
 20
175.36392171243199
 30
0.0
 11
-376.48436045105598
 21
151.1656945432471
 31
0.0
  0
LINE
  5
BAE
  8
DIMNSIONS
  6
CONTINUOUS
 62
     7
 10
-379.0276966124585
 20
175.36392171243199
 30
0.0
 11
-350.0
 21
100.0000000000001
 31
0.0
  0
LINE
  5
BAF
  8
DIMNSIONS
  6
CONTINUOUS
 62
     7
 10
-350.0
 20
100.0000000000001
 30
0.0
 11
-166.5277777777776
 21
100.0000000000001
 31
0.0
  0
TEXT
  5
BB0
  8
DIMNSIONS
 62
     7
 10
-290.0
 20
112.0555555555555
 30
0.0
 40
28.222222222222211
  1
2-φ6.8
 41
0.8
 11
-290.0
 21
140.2777777777778
 31
0.0
 73
     3
  0
LINE
  5
BB1
  8
DIMNSIONS
  6
CONTINUOUS
 62
     7
 10
-399.99975000000001
 20
255.2867100000006
 30
0.0
 11
-399.99975000000001
 21
288.88641055555593
 31
0.0
  0
LINE
  5
BB2
  8
DIMNSIONS
  6
CONTINUOUS
 62
     7
 10
-380.24975000000001
 20
248.5367100000004
 30
0.0
 11
-380.24975000000001
 21
288.88641055555593
 31
0.0
  0
LINE
  5
BB3
  8
DIMNSIONS
  6
CONTINUOUS
 62
     7
 10
-380.24975000000001
 20
268.88641055555593
 30
0.0
 11
-399.99975000000001
 21
268.88641055555593
 31
0.0
  0
LINE
  5
BB4
  8
DIMNSIONS
 62
     7
 10
-399.99975000000001
 20
268.88641055555593
 30
0.0
 11
-425.00597558593768
 21
262.18601260405342
 31
0.0
  0
LINE
  5
BB5
  8
DIMNSIONS
 62
     7
 10
-399.99975000000001
 20
268.88641055555593
 30
0.0
 11
-425.00597558593768
 21
275.58680850705838
 31
0.0
  0
LINE
  5
BB6
  8
DIMNSIONS
  6
CONTINUOUS
 62
     7
 10
-399.99975000000001
 20
268.88641055555593
 30
0.0
 11
-513.19444444444412
 21
268.88641055555593
 31
0.0
  0
LINE
  5
BB7
  8
DIMNSIONS
 62
     7
 10
-380.24975000000001
 20
268.88641055555593
 30
0.0
 11
-355.24352441406262
 21
275.58680850705832
 31
0.0
  0
LINE
  5
BB8
  8
DIMNSIONS
 62
     7
 10
-380.24975000000001
 20
268.88641055555593
 30
0.0
 11
-355.24352441406262
 21
262.18601260405359
 31
0.0
  0
LINE
  5
BB9
  8
DIMNSIONS
  6
CONTINUOUS
 62
     7
 10
-380.24975000000001
 20
268.88641055555593
 30
0.0
 11
-330.24975000000001
 21
268.88641055555593
 31
0.0
  0
TEXT
  5
BBA
  8
DIMNSIONS
 62
     7
 10
-513.194444444444
 20
280.94196611111141
 30
0.0
 40
28.222222222222211
  1
19.75
 41
0.8
 11
-513.194444444444
 21
309.1641883333337
 31
0.0
 73
     3
  0
LINE
  5
BBB
  8
DIMNSIONS
  6
CONTINUOUS
 62
     7
 10
-360.49975000000001
 20
255.2867100000006
 30
0.0
 11
-360.49975000000001
 21
345.0
 31
0.0
  0
LINE
  5
BBC
  8
DIMNSIONS
  6
CONTINUOUS
 62
     7
 10
-399.99975000000001
 20
255.2867100000006
 30
0.0
 11
-399.99975000000001
 21
345.0
 31
0.0
  0
LINE
  5
BBD
  8
DIMNSIONS
  6
CONTINUOUS
 62
     7
 10
-399.99975000000001
 20
325.0
 30
0.0
 11
-360.49975000000001
 21
325.0
 31
0.0
  0
LINE
  5
BBE
  8
DIMNSIONS
 62
     7
 10
-360.49975000000001
 20
325.0
 30
0.0
 11
-335.49352441406268
 21
331.70039795150251
 31
0.0
  0
LINE
  5
BBF
  8
DIMNSIONS
 62
     7
 10
-360.49975000000001
 20
325.0
 30
0.0
 11
-335.49352441406268
 21
318.29960204849772
 31
0.0
  0
LINE
  5
BC0
  8
DIMNSIONS
  6
CONTINUOUS
 62
     7
 10
-360.49975000000001
 20
325.0
 30
0.0
 11
-310.49975000000001
 21
325.0
 31
0.0
  0
LINE
  5
BC1
  8
DIMNSIONS
 62
     7
 10
-399.99975000000001
 20
325.0
 30
0.0
 11
-425.00597558593768
 21
318.29960204849772
 31
0.0
  0
LINE
  5
BC2
  8
DIMNSIONS
 62
     7
 10
-399.99975000000001
 20
325.0
 30
0.0
 11
-425.00597558593768
 21
331.70039795150251
 31
0.0
  0
LINE
  5
BC3
  8
DIMNSIONS
  6
CONTINUOUS
 62
     7
 10
-399.99975000000001
 20
325.0
 30
0.0
 11
-449.99975000000001
 21
325.0
 31
0.0
  0
TEXT
  5
BC4
  8
DIMNSIONS
 62
     7
 10
-415.52752777777778
 20
352.05555555555537
 30
0.0
 40
28.222222222222211
  1
39.5
 41
0.8
 11
-415.52752777777778
 21
380.27777777777771
 31
0.0
 73
     3
  0
LINE
  5
BC5
  8
DIMNSIONS
  6
CONTINUOUS
 62
     7
 10
-370.24975000000001
 20
238.5367100000004
 30
0.0
 11
-280.0
 21
238.5367100000004
 31
0.0
  0
LINE
  5
BC6
  8
DIMNSIONS
  6
CONTINUOUS
 62
     7
 10
-370.24975000000001
 20
178.5367100000004
 30
0.0
 11
-280.0
 21
178.5367100000004
 31
0.0
  0
LINE
  5
BC7
  8
DIMNSIONS
 62
     7
 10
-300.0
 20
238.5367100000004
 30
0.0
 11
-293.2996020484976
 21
213.5304844140629
 31
0.0
  0
LINE
  5
BC8
  8
DIMNSIONS
 62
     7
 10
-300.0
 20
238.5367100000004
 30
0.0
 11
-306.70039795150228
 21
213.5304844140629
 31
0.0
  0
LINE
  5
BC9
  8
DIMNSIONS
 62
     7
 10
-300.0
 20
178.5367100000004
 30
0.0
 11
-306.70039795150228
 21
203.5429355859379
 31
0.0
  0
LINE
  5
BCA
  8
DIMNSIONS
 62
     7
 10
-300.0
 20
178.5367100000004
 30
0.0
 11
-293.2996020484976
 21
203.5429355859379
 31
0.0
  0
LINE
  5
BCB
  8
DIMNSIONS
  6
CONTINUOUS
 62
     7
 10
-300.0
 20
238.5367100000004
 30
0.0
 11
-300.0
 21
178.5367100000004
 31
0.0
  0
TEXT
  5
BCC
  8
DIMNSIONS
 62
     7
 10
-312.0555555555556
 20
190.89782111111151
 30
0.0
 40
28.222222222222211
  1
60
 50
90.0
 41
0.8
 11
-340.27777777777783
 21
190.89782111111151
 31
0.0
 73
     3
  0
LINE
  5
BCD
  8
DIMNSIONS
  6
CONTINUOUS
 62
     7
 10
-350.49975000000001
 20
245.2867100000004
 30
0.0
 11
-205.0
 21
245.2867100000004
 31
0.0
  0
LINE
  5
BCE
  8
DIMNSIONS
  6
CONTINUOUS
 62
     7
 10
-350.49975000000001
 20
171.7867100000004
 30
0.0
 11
-205.0
 21
171.7867100000004
 31
0.0
  0
LINE
  5
BCF
  8
DIMNSIONS
 62
     7
 10
-225.0
 20
245.2867100000004
 30
0.0
 11
-218.29960204849741
 21
220.2804844140631
 31
0.0
  0
LINE
  5
BD0
  8
DIMNSIONS
 62
     7
 10
-225.0
 20
245.2867100000004
 30
0.0
 11
-231.7003979515024
 21
220.2804844140631
 31
0.0
  0
LINE
  5
BD1
  8
DIMNSIONS
 62
     7
 10
-225.0
 20
171.7867100000004
 30
0.0
 11
-231.7003979515024
 21
196.7929355859379
 31
0.0
  0
LINE
  5
BD2
  8
DIMNSIONS
 62
     7
 10
-225.0
 20
171.7867100000004
 30
0.0
 11
-218.29960204849741
 21
196.7929355859379
 31
0.0
  0
LINE
  5
BD3
  8
DIMNSIONS
  6
CONTINUOUS
 62
     7
 10
-225.0
 20
245.2867100000004
 30
0.0
 11
-225.0
 21
171.7867100000004
 31
0.0
  0
TEXT
  5
BD4
  8
DIMNSIONS
 62
     7
 10
-237.0555555555554
 20
173.25893222222271
 30
0.0
 40
28.222222222222211
  1
73.5
 50
90.0
 41
0.8
 11
-265.2777777777776
 21
173.25893222222271
 31
0.0
 73
     3
  0
LINE
  5
BD5
  8
DIMNSIONS
  6
CONTINUOUS
 62
     7
 10
-559.89975000000004
 20
-158.34193019999981
 30
0.0
 11
-670.0
 21
-158.34193019999981
 31
0.0
  0
LINE
  5
BD6
  8
DIMNSIONS
  6
CONTINUOUS
 62
     7
 10
-569.74568602387785
 20
-188.34193020000001
 30
0.0
 11
-670.0
 21
-188.34193020000001
 31
0.0
  0
LINE
  5
BD7
  8
DIMNSIONS
  6
CONTINUOUS
 62
     7
 10
-650.0
 20
-188.34193020000001
 30
0.0
 11
-650.0
 21
-158.34193019999981
 31
0.0
  0
LINE
  5
BD8
  8
DIMNSIONS
 62
     7
 10
-650.0
 20
-158.34193019999981
 30
0.0
 11
-656.7003979515024
 21
-133.33570461406231
 31
0.0
  0
LINE
  5
BD9
  8
DIMNSIONS
 62
     7
 10
-650.0
 20
-158.34193019999981
 30
0.0
 11
-643.2996020484976
 21
-133.33570461406231
 31
0.0
  0
LINE
  5
BDA
  8
DIMNSIONS
  6
CONTINUOUS
 62
     7
 10
-650.0
 20
-158.34193019999981
 30
0.0
 11
-650.0
 21
-111.5089322222222
 31
0.0
  0
LINE
  5
BDB
  8
DIMNSIONS
 62
     7
 10
-650.0
 20
-188.34193020000001
 30
0.0
 11
-643.2996020484976
 21
-213.34815578593751
 31
0.0
  0
LINE
  5
BDC
  8
DIMNSIONS
 62
     7
 10
-650.0
 20
-188.34193020000001
 30
0.0
 11
-656.7003979515024
 21
-213.34815578593751
 31
0.0
  0
LINE
  5
BDD
  8
DIMNSIONS
  6
CONTINUOUS
 62
     7
 10
-650.0
 20
-188.34193020000001
 30
0.0
 11
-650.0
 21
-238.34193020000001
 31
0.0
  0
TEXT
  5
BDE
  8
DIMNSIONS
 62
     7
 10
-662.05555555555543
 20
-146.78671000000011
 30
0.0
 40
28.222222222222211
  1
30
 50
90.0
 41
0.8
 11
-690.27777777777749
 21
-146.78671000000011
 31
0.0
 73
     3
  0
LINE
  5
BDF
  8
DIMNSIONS
  6
CONTINUOUS
 62
     7
 10
-569.74568602387785
 20
-188.34193020000001
 30
0.0
 11
-670.0
 21
-188.34193020000001
 31
0.0
  0
LINE
  5
BE0
  8
DIMNSIONS
  6
CONTINUOUS
 62
     7
 10
-540.14975000000004
 20
-300.00000000000051
 30
0.0
 11
-670.0
 21
-300.00000000000051
 31
0.0
  0
LINE
  5
BE1
  8
DIMNSIONS
 62
     7
 10
-650.0
 20
-188.34193020000001
 30
0.0
 11
-643.2996020484976
 21
-213.34815578593751
 31
0.0
  0
LINE
  5
BE2
  8
DIMNSIONS
 62
     7
 10
-650.0
 20
-188.34193020000001
 30
0.0
 11
-656.7003979515024
 21
-213.34815578593751
 31
0.0
  0
LINE
  5
BE3
  8
DIMNSIONS
 62
     7
 10
-650.0
 20
-300.00000000000051
 30
0.0
 11
-656.7003979515024
 21
-274.99377441406313
 31
0.0
  0
LINE
  5
BE4
  8
DIMNSIONS
 62
     7
 10
-650.0
 20
-300.00000000000051
 30
0.0
 11
-643.2996020484976
 21
-274.99377441406313
 31
0.0
  0
LINE
  5
BE5
  8
DIMNSIONS
  6
CONTINUOUS
 62
     7
 10
-650.0
 20
-188.34193020000001
 30
0.0
 11
-650.0
 21
-300.00000000000051
 31
0.0
  0
TEXT
  5
BE6
  8
DIMNSIONS
 62
     7
 10
-662.05555555555543
 20
-270.62929843333359
 30
0.0
 40
28.222222222222211
  1
112
 50
90.0
 41
0.8
 11
-690.27777777777749
 21
-270.62929843333359
 31
0.0
 73
     3
  0
LINE
  5
BE7
  8
DIMNSIONS
  6
CONTINUOUS
 62
     7
 10
-479.29388194350253
 20
-325.11462064571089
 30
0.0
 11
-467.35271485955661
 21
-354.67004630963282
 31
0.0
  0
LINE
  5
BE8
  8
DIMNSIONS
  6
CONTINUOUS
 62
     7
 10
-581.00561805649727
 20
-325.11462064571089
 30
0.0
 11
-592.94678514044324
 21
-354.67004630963282
 31
0.0
  0
LINE
  5
BE9
  8
DIMNSIONS
 62
     7
 10
-474.84484672787471
 20
-336.1263692182971
 30
0.0
 11
-494.5294581022348
 21
-350.42807652902758
 31
0.0
  0
LINE
  5
BEA
  8
DIMNSIONS
 62
     7
 10
-474.84484672787471
 20
-336.1263692182971
 30
0.0
 11
-499.04307389705991
 21
-338.66970537969922
 31
0.0
  0
LINE
  5
BEB
  8
DIMNSIONS
 62
     7
 10
-585.45465327212514
 20
-336.1263692182971
 30
0.0
 11
-561.30449894654021
 21
-339.09163531290142
 31
0.0
  0
LINE
  5
BEC
  8
DIMNSIONS
 62
     7
 10
-585.45465327212514
 20
-336.1263692182971
 30
0.0
 11
-566.02263916815605
 21
-350.76944214799761
 31
0.0
  0
ARC
  5
BED
  8
DIMNSIONS
  6
CONTINUOUS
 62
     7
 10
-530.14974999999993
 20
-199.2419302000001
 30
0.0
 40
147.6346232131641
 50
248.0
 51
291.99999999999989
  0
TEXT
  5
BEE
  8
DIMNSIONS
 62
     7
 10
-560.01639761285458
 20
-381.07070544238871
 30
0.0
 40
28.222222222222211
  1
44°
 50
1.709535212729953
 41
0.8
 11
-560.85833963348227
 21
-352.8610446717521
 31
0.0
 73
     3
  0
LINE
  5
BEF
  8
DIMNSIONS
  6
CONTINUOUS
 62
     7
 10
-460.29974999999979
 20
-251.04670999999999
 30
0.0
 11
-460.29974999999979
 21
-76.149560907116907
 31
0.0
  0
LINE
  5
BF0
  8
DIMNSIONS
  6
CONTINUOUS
 62
     7
 10
-492.78325409158958
 20
-186.8466310220297
 30
0.0
 11
-532.35848876968112
 21
-90.352238159844205
 31
0.0
  0
LINE
  5
BF1
  8
DIMNSIONS
 62
     7
 10
-524.76936557910085
 20
-108.8564325275597
 30
0.0
 11
-543.94286323294068
 21
-123.8364106543653
 31
0.0
  0
LINE
  5
BF2
  8
DIMNSIONS
 62
     7
 10
-524.76936557910085
 20
-108.8564325275597
 30
0.0
 11
-548.86409069013041
 21
-112.2427253065884
 31
0.0
  0
ARC
  5
BF3
  8
DIMNSIONS
  6
CONTINUOUS
 62
     7
 10
-460.29974999999979
 20
-266.04959799999989
 30
0.0
 40
169.90003709288311
 50
112.3000000000001
 51
129.16161477462171
  0
LINE
  5
BF4
  8
DIMNSIONS
 62
     7
 10
-460.29974999999979
 20
-96.149560907116864
 30
0.0
 11
-436.79730859374979
 21
-89.852100712152463
 31
0.0
  0
LINE
  5
BF5
  8
DIMNSIONS
 62
     7
 10
-460.29974999999979
 20
-96.149560907116864
 30
0.0
 11
-436.79730859374979
 21
-102.44702110208119
 31
0.0
  0
ARC
  5
BF6
  8
DIMNSIONS
  6
CONTINUOUS
 62
     7
 10
-460.29974999999979
 20
-266.04959799999989
 30
0.0
 40
169.90003709288311
 50
73.138385225378414
 51
90.0
  0
TEXT
  5
BF7
  8
DIMNSIONS
 62
     7
 10
-530.05914780215642
 20
-74.411121944461243
 30
0.0
 40
28.222222222222211
  1
22.3°
 50
4.9636053443919721
 41
0.8
 11
-532.50101732332325
 21
-46.294737034553457
 31
0.0
 73
     3
  0
LINE
  5
BF8
  8
DIMNSIONS
  6
CONTINUOUS
 62
     7
 10
-608.72975000000008
 20
-509.24599999999998
 30
0.0
 11
-670.0
 21
-509.24599999999998
 31
0.0
  0
LINE
  5
BF9
  8
DIMNSIONS
  6
CONTINUOUS
 62
     7
 10
-608.72974999999985
 20
-700.0
 30
0.0
 11
-670.0
 21
-700.0
 31
0.0
  0
LINE
  5
BFA
  8
DIMNSIONS
 62
     7
 10
-650.0
 20
-509.24599999999998
 30
0.0
 11
-643.2996020484976
 21
-534.25222558593771
 31
0.0
  0
LINE
  5
BFB
  8
DIMNSIONS
 62
     7
 10
-650.0
 20
-509.24599999999998
 30
0.0
 11
-656.7003979515024
 21
-534.25222558593771
 31
0.0
  0
LINE
  5
BFC
  8
DIMNSIONS
 62
     7
 10
-650.0
 20
-700.0
 30
0.0
 11
-656.7003979515024
 21
-674.99377441406227
 31
0.0
  0
LINE
  5
BFD
  8
DIMNSIONS
 62
     7
 10
-650.0
 20
-700.0
 30
0.0
 11
-643.2996020484976
 21
-674.99377441406227
 31
0.0
  0
LINE
  5
BFE
  8
DIMNSIONS
  6
CONTINUOUS
 62
     7
 10
-650.0
 20
-509.24599999999998
 30
0.0
 11
-650.0
 21
-700.0
 31
0.0
  0
TEXT
  5
BFF
  8
DIMNSIONS
 62
     7
 10
-662.05555555555543
 20
-631.08133333333353
 30
0.0
 40
28.222222222222211
  1
191
 50
90.0
 41
0.8
 11
-690.27777777777749
 21
-631.08133333333353
 31
0.0
 73
     3
  0
LINE
  5
C00
  8
DIMNSIONS
  6
CONTINUOUS
 62
     7
 10
-599.99974999999995
 20
-708.72999999999979
 30
0.0
 11
-599.99974999999995
 21
-791.78670999999974
 31
0.0
  0
LINE
  5
C01
  8
DIMNSIONS
  6
CONTINUOUS
 62
     7
 10
-460.29974999999979
 20
-708.72999999999979
 30
0.0
 11
-460.29974999999979
 21
-791.78670999999974
 31
0.0
  0
LINE
  5
C02
  8
DIMNSIONS
 62
     7
 10
-599.99974999999995
 20
-771.78670999999974
 30
0.0
 11
-574.99352441406245
 21
-765.08631204849769
 31
0.0
  0
LINE
  5
C03
  8
DIMNSIONS
 62
     7
 10
-599.99974999999995
 20
-771.78670999999974
 30
0.0
 11
-574.99352441406245
 21
-778.48710795150225
 31
0.0
  0
LINE
  5
C04
  8
DIMNSIONS
 62
     7
 10
-460.29974999999979
 20
-771.78670999999974
 30
0.0
 11
-485.30597558593729
 21
-778.48710795150225
 31
0.0
  0
LINE
  5
C05
  8
DIMNSIONS
 62
     7
 10
-460.29974999999979
 20
-771.78670999999974
 30
0.0
 11
-485.30597558593729
 21
-765.08631204849769
 31
0.0
  0
LINE
  5
C06
  8
DIMNSIONS
  6
CONTINUOUS
 62
     7
 10
-599.99974999999995
 20
-771.78670999999974
 30
0.0
 11
-460.29974999999979
 21
-771.78670999999974
 31
0.0
  0
TEXT
  5
C07
  8
DIMNSIONS
 62
     7
 10
-556.6080833333333
 20
-759.73115444444443
 30
0.0
 40
28.222222222222211
  1
140
 41
0.8
 11
-556.6080833333333
 21
-731.50893222222226
 31
0.0
 73
     3
  0
LINE
  5
C08
  8
DIMNSIONS
  6
CONTINUOUS
 62
     7
 10
-109.483236552062
 20
-673.31434554985753
 30
0.0
 11
-158.60256725688851
 21
-689.74944370076696
 31
0.0
  0
LINE
  5
C09
  8
DIMNSIONS
  6
CONTINUOUS
 62
     7
 10
-109.483236552062
 20
-566.08236335726178
 30
0.0
 11
-158.60256725688851
 21
-549.64726520635213
 31
0.0
  0
LINE
  5
C0A
  8
DIMNSIONS
 62
     7
 10
-139.6360941527646
 20
-683.40335057266475
 30
0.0
 11
-152.88798851112739
 21
-662.9972227460496
 31
0.0
  0
LINE
  5
C0B
  8
DIMNSIONS
 62
     7
 10
-139.6360941527646
 20
-683.40335057266475
 30
0.0
 11
-140.90950740206699
 21
-659.10517830276206
 31
0.0
  0
LINE
  5
C0C
  8
DIMNSIONS
 62
     7
 10
-139.6360941527646
 20
-555.99335833445423
 30
0.0
 11
-140.90950740206699
 21
-580.29153060435715
 31
0.0
  0
LINE
  5
C0D
  8
DIMNSIONS
 62
     7
 10
-139.6360941527646
 20
-555.99335833445423
 30
0.0
 11
-152.88798851112739
 21
-576.39948616106949
 31
0.0
  0
ARC
  5
C0E
  8
DIMNSIONS
  6
CONTINUOUS
 62
     7
 10
50.75806979999949
 20
-619.69835445355955
 30
0.0
 40
200.76918139447409
 50
161.4999999999998
 51
198.5
  0
TEXT
  5
C0F
  8
DIMNSIONS
 62
     7
 10
-162.0666671500299
 20
-654.97613223133749
 30
0.0
 40
28.222222222222211
  1
37°
 50
90.0
 41
0.8
 11
-190.2888893722521
 21
-654.97613223133749
 31
0.0
 73
     3
  0
LINE
  5
C10
  8
DIMNSIONS
  6
CONTINUOUS
 62
     7
 10
-30.986870943342758
 20
-509.25197431879428
 30
0.0
 11
120.5368919521442
 21
-509.25197431879428
 31
0.0
  0
LINE
  5
C11
  8
DIMNSIONS
  6
CONTINUOUS
 62
     7
 10
70.186851270707123
 20
-519.41585356196435
 30
0.0
 11
119.90321931116171
 21
-523.76547025274374
 31
0.0
  0
LINE
  5
C12
  8
DIMNSIONS
 62
     7
 10
99.97932528306201
 20
-522.02235615520101
 30
0.0
 11
105.0126850714942
 21
-550.56795801493217
 31
0.0
  0
LINE
  5
C13
  8
DIMNSIONS
 62
     7
 10
99.97932528306201
 20
-522.02235615520101
 30
0.0
 11
90.065541796365935
 21
-549.26025242626065
 31
0.0
  0
ARC
  5
C14
  8
DIMNSIONS
  6
CONTINUOUS
 62
     7
 10
-45.986870943342282
 20
-509.25197431879428
 30
0.0
 40
146.52376289548661
 50
335.44829998972421
 51
355.0000021781093
  0
LINE
  5
C15
  8
DIMNSIONS
 62
     7
 10
100.5368919521443
 20
-509.25197431879428
 30
0.0
 11
93.034772485056081
 21
-481.25368330316923
 31
0.0
  0
LINE
  5
C16
  8
DIMNSIONS
 62
     7
 10
100.5368919521443
 20
-509.25197431879428
 30
0.0
 11
108.03901141923259
 21
-481.25368330316923
 31
0.0
  0
ARC
  5
C17
  8
DIMNSIONS
  6
CONTINUOUS
 62
     7
 10
-45.986870943342282
 20
-509.25197431879428
 30
0.0
 40
146.52376289548661
 50
0.0
 51
18.89740604979141
  0
TEXT
  5
C18
  8
DIMNSIONS
 62
     7
 10
49.999749999999928
 20
-488.47415737119729
 30
0.0
 40
28.222222222222211
  1
5°
 41
0.8
 11
49.999749999999928
 21
-460.25193514897512
 31
0.0
 73
     3
  0
TEXT
  5
C19
  8
DIMNSIONS
 62
     7
 10
-324.99999999999989
 20
-142.5147116666667
 30
0.0
 40
25.399999999999999
  1
注1) スピーカの角度をつけた時の寸法です。
 41
0.8
 11
-324.99999999999989
 21
-117.11471166666681
 31
0.0
 73
     3
  0
LINE
  5
C1A
  8
DIMNSIONS
  6
CONTINUOUS
 62
     7
 10
-50.000000000000021
 20
-704.79701259999956
 30
0.0
 11
-50.000000000000021
 21
-816.78670999999974
 31
0.0
  0
LINE
  5
C1B
  8
DIMNSIONS
  6
CONTINUOUS
 62
     7
 10
61.658069800000007
 20
-699.13767780560124
 30
0.0
 11
61.658069800000007
 21
-816.78670999999974
 31
0.0
  0
LINE
  5
C1C
  8
DIMNSIONS
 62
     7
 10
-50.000000000000021
 20
-796.78670999999974
 30
0.0
 11
-24.993774414062511
 21
-790.0863120484978
 31
0.0
  0
LINE
  5
C1D
  8
DIMNSIONS
 62
     7
 10
-50.000000000000021
 20
-796.78670999999974
 30
0.0
 11
-24.993774414062511
 21
-803.48710795150225
 31
0.0
  0
LINE
  5
C1E
  8
DIMNSIONS
 62
     7
 10
61.658069800000007
 20
-796.78670999999974
 30
0.0
 11
36.6518442140625
 21
-803.48710795150225
 31
0.0
  0
LINE
  5
C1F
  8
DIMNSIONS
 62
     7
 10
61.658069800000007
 20
-796.78670999999974
 30
0.0
 11
36.6518442140625
 21
-790.0863120484978
 31
0.0
  0
LINE
  5
C20
  8
DIMNSIONS
  6
CONTINUOUS
 62
     7
 10
-50.000000000000021
 20
-796.78670999999974
 30
0.0
 11
61.658069800000007
 21
-796.78670999999974
 31
0.0
  0
TEXT
  5
C21
  8
DIMNSIONS
 62
     7
 10
-20.629298433333329
 20
-784.73115444444443
 30
0.0
 40
28.222222222222211
  1
112
 41
0.8
 11
-20.629298433333329
 21
-756.50893222222226
 31
0.0
 73
     3
  0
LINE
  5
C22
  8
DIMNSIONS
  6
CONTINUOUS
 62
     7
 10
-36.12370540000007
 20
-700.00000000000648
 30
0.0
 11
169.99974999999981
 21
-700.00000000000648
 31
0.0
  0
LINE
  5
C23
  8
DIMNSIONS
  6
CONTINUOUS
 62
     7
 10
101.65806980000001
 20
-619.69835445355955
 30
0.0
 11
169.99974999999981
 21
-619.69835445355955
 31
0.0
  0
LINE
  5
C24
  8
DIMNSIONS
 62
     7
 10
149.99974999999981
 20
-700.00000000000648
 30
0.0
 11
143.2993520484975
 21
-674.99377441406875
 31
0.0
  0
LINE
  5
C25
  8
DIMNSIONS
 62
     7
 10
149.99974999999981
 20
-700.00000000000648
 30
0.0
 11
156.7001479515022
 21
-674.99377441406875
 31
0.0
  0
LINE
  5
C26
  8
DIMNSIONS
 62
     7
 10
149.99974999999981
 20
-619.69835445355955
 30
0.0
 11
156.7001479515022
 21
-644.70458003949716
 31
0.0
  0
LINE
  5
C27
  8
DIMNSIONS
 62
     7
 10
149.99974999999981
 20
-619.69835445355955
 30
0.0
 11
143.2993520484975
 21
-644.70458003949716
 31
0.0
  0
LINE
  5
C28
  8
DIMNSIONS
  6
CONTINUOUS
 62
     7
 10
149.99974999999981
 20
-700.00000000000648
 30
0.0
 11
149.99974999999981
 21
-619.69835445355955
 31
0.0
  0
TEXT
  5
C29
  8
DIMNSIONS
 62
     7
 10
137.94419444444429
 20
-677.48806611567204
 30
0.0
 40
28.222222222222211
  1
80
 50
90.0
 41
0.8
 11
109.72197222222211
 21
-677.48806611567204
 31
0.0
 73
     3
  0
LINE
  5
C2A
  8
DATA
  6
CONTINUOUS
 62
     7
 10
-650.0
 20
0.0
 30
0.0
 11
-250.0
 21
0.0
 31
0.0
  0
LINE
  5
C2B
  8
DATA
  6
CONTINUOUS
 62
     7
 10
-599.99974999999995
 20
-698.73000000000002
 30
0.0
 11
-599.99974999999995
 21
-510.51600000000002
 31
0.0
  0
LINE
  5
C2C
  8
DATA
  6
CONTINUOUS
 62
     7
 10
-593.12031239999965
 20
-696.36701259999995
 30
0.0
 11
-593.12031239999965
 21
-512.96100400000012
 31
0.0
  0
LINE
  5
C2D
  8
DATA
  6
CONTINUOUS
 62
     7
 10
-592.10035000000016
 20
-695.3470248000001
 30
0.0
 11
-592.10035000000016
 21
-513.98099180000031
 31
0.0
  0
ARC
  5
C2E
  8
DATA
  6
CONTINUOUS
 62
     7
 10
-470.27788438903571
 20
-565.41981438852997
 30
0.0
 40
53.369731440612313
 50
113.90067112009299
 51
145.9040316324411
  0
LINE
  5
C2F
  8
DATA
  6
CONTINUOUS
 62
     7
 10
-591.04015400000003
 20
-685.65728039999976
 30
0.0
 11
-591.04015399999957
 21
-523.67073620000019
 31
0.0
  0
LINE
  5
C30
  8
DATA
  6
CONTINUOUS
 62
     7
 10
-568.39874640000016
 20
-544.24613320000014
 30
0.0
 11
-568.39874640000016
 21
-516.62657960000001
 31
0.0
  0
ARC
  5
C31
  8
DATA
  6
CONTINUOUS
 62
     7
 10
-590.0216156109642
 20
-565.41981438853009
 30
0.0
 40
53.369731440612313
 50
34.095968367558683
 51
66.099328879906778
  0
LINE
  5
C32
  8
DATA
  6
CONTINUOUS
 62
     7
 10
-491.90072819999989
 20
-516.62657960000001
 30
0.0
 11
-491.90072819999989
 21
-544.24613320000014
 31
0.0
  0
LINE
  5
C33
  8
DATA
  6
CONTINUOUS
 62
     7
 10
-460.2997499999999
 20
-698.73000000000002
 30
0.0
 11
-460.29974999999979
 21
-510.51600000000002
 31
0.0
  0
LINE
  5
C34
  8
DATA
  6
CONTINUOUS
 62
     7
 10
-467.17916219999989
 20
-563.25755060000017
 30
0.0
 11
-467.17916219999989
 21
-512.96100400000012
 31
0.0
  0
LINE
  5
C35
  8
DATA
  6
CONTINUOUS
 62
     7
 10
-468.19914999999992
 20
-562.63810722582252
 30
0.0
 11
-468.19914999999992
 21
-513.98099180000031
 31
0.0
  0
LINE
  5
C36
  8
DATA
  6
CONTINUOUS
 62
     7
 10
-469.2593205999998
 20
-562.15643168393876
 30
0.0
 11
-469.2593205999998
 21
-523.67073620000019
 31
0.0
  0
LINE
  5
C37
  8
DATA
  6
CONTINUOUS
 62
     7
 10
-592.10034999999982
 20
-695.3470248000001
 30
0.0
 11
-468.19914999999992
 21
-695.3470248000001
 31
0.0
  0
LINE
  5
C38
  8
DATA
  6
CONTINUOUS
 62
     7
 10
-593.12031239999965
 20
-696.36701259999995
 30
0.0
 11
-467.17916219999972
 21
-696.36701259999995
 31
0.0
  0
LINE
  5
C39
  8
DATA
  6
CONTINUOUS
 62
     7
 10
-598.72974999999985
 20
-700.0
 30
0.0
 11
-461.56974999999989
 21
-700.0
 31
0.0
  0
ARC
  5
C3A
  8
DATA
  6
CONTINUOUS
 62
     7
 10
-530.14975000000004
 20
-649.29517380000004
 30
0.0
 40
39.778965399999983
 50
105.63501762937911
 51
14.60195861430388
  0
ARC
  5
C3B
  8
DATA
  6
CONTINUOUS
 62
     7
 10
-486.80083999999988
 20
-549.77573859999995
 30
0.0
 40
7.5223115999999663
 50
0.0
 51
180.0
  0
ARC
  5
C3C
  8
DATA
  6
CONTINUOUS
 62
     7
 10
-486.80083999999988
 20
-549.77573859999995
 30
0.0
 40
5.0998627999999826
 50
0.0
 51
180.0
  0
ARC
  5
C3D
  8
DATA
  6
CONTINUOUS
 62
     7
 10
-495.54352
 20
-683.90137840000011
 30
0.0
 40
5.0311812000000149
 50
277.64308499999959
 51
352.35685199999989
  0
ARC
  5
C3E
  8
DATA
  6
CONTINUOUS
 62
     7
 10
-486.80083999999988
 20
-559.97546419999992
 30
0.0
 40
7.5223115999999663
 50
180.0
 51
0.0
  0
ARC
  5
C3F
  8
DATA
  6
CONTINUOUS
 62
     7
 10
-486.80083999999988
 20
-559.97546419999992
 30
0.0
 40
5.0998627999999826
 50
180.0
 51
0.0
  0
ARC
  5
C40
  8
DATA
  6
CONTINUOUS
 62
     7
 10
-496.59765022511772
 20
-557.76433575810711
 30
0.0
 40
16.244251232341281
 50
263.28425850427209
 51
315.99012808427022
  0
ARC
  5
C41
  8
DATA
  6
CONTINUOUS
 62
     7
 10
-497.58122281868731
 20
-614.18474151637724
 30
0.0
 40
25.77251190356905
 50
255.34121332271161
 51
284.93954266405689
  0
LINE
  5
C42
  8
DATA
  6
CONTINUOUS
 62
     7
 10
-581.35040959999981
 20
-695.3470248000001
 30
0.0
 11
-581.35040959999981
 21
-693.81708120000008
 31
0.0
  0
ARC
  5
C43
  8
DATA
  6
CONTINUOUS
 62
     7
 10
-598.72974999999985
 20
-698.73000000000002
 30
0.0
 40
1.26999999999998
 50
180.0
 51
270.0
  0
LINE
  5
C44
  8
DATA
  6
CONTINUOUS
 62
     7
 10
-494.87435699999992
 20
-688.88788100000011
 30
0.0
 11
-524.30658159999984
 21
-692.83753020000006
 31
0.0
  0
ARC
  5
C45
  8
DATA
  6
CONTINUOUS
 62
     7
 10
-498.91354843251611
 20
-604.51489736866006
 30
0.0
 40
30.620598530723289
 50
89.221133455832117
 51
117.3205641546555
  0
ARC
  5
C46
  8
DATA
  6
CONTINUOUS
 62
     7
 10
-489.55048662366028
 20
-606.85998040540392
 30
0.0
 40
35.38907275228523
 50
222.6592763817012
 51
245.71834719635069
  0
ARC
  5
C47
  8
DATA
  6
CONTINUOUS
 62
     7
 10
-530.14975000000004
 20
-649.29517380000004
 30
0.0
 40
37.144705999999921
 50
105.7987863573577
 51
14.90381547792564
  0
ARC
  5
C48
  8
DATA
  6
CONTINUOUS
 62
     7
 10
-530.14975000000004
 20
-649.29517380000004
 30
0.0
 40
34.132977199999921
 50
105.5800418607095
 51
15.87941883148194
  0
CIRCLE
  5
C49
  8
DATA
  6
CONTINUOUS
 62
     7
 10
-530.14975000000004
 20
-554.87560140000016
 30
0.0
 40
14.024635400000079
  0
ARC
  5
C4A
  8
DATA
  6
CONTINUOUS
 62
     7
 10
-573.49863460000017
 20
-549.77573859999995
 30
0.0
 40
7.52231160000008
 50
0.0
 51
180.0
  0
ARC
  5
C4B
  8
DATA
  6
CONTINUOUS
 62
     7
 10
-573.49863460000017
 20
-549.77573859999995
 30
0.0
 40
5.0998627999999826
 50
0.0
 51
180.0
  0
LINE
  5
C4C
  8
DATA
  6
CONTINUOUS
 62
     7
 10
-546.08682760000011
 20
-573.62010620000001
 30
0.0
 11
-546.08682759999965
 21
-536.13109659999986
 31
0.0
  0
LINE
  5
C4D
  8
DATA
  6
CONTINUOUS
 62
     7
 10
-514.21264699999995
 20
-536.13109659999986
 30
0.0
 11
-514.21264699999995
 21
-573.62010620000001
 31
0.0
  0
CIRCLE
  5
C4E
  8
DATA
  6
CONTINUOUS
 62
     7
 10
-530.14975000000004
 20
-649.29517380000004
 30
0.0
 40
19.074307800000032
  0
ARC
  5
C4F
  8
DATA
  6
CONTINUOUS
 62
     7
 10
-530.14975000000004
 20
-649.29517380000004
 30
0.0
 40
43.932678200000041
 50
262.356852
 51
277.643148
  0
LINE
  5
C50
  8
DATA
  6
CONTINUOUS
 62
     7
 10
-515.10264699999993
 20
-574.51010620000011
 30
0.0
 11
-545.19682760000001
 21
-574.51010620000011
 31
0.0
  0
ARC
  5
C51
  8
DATA
  6
CONTINUOUS
 62
     7
 10
-528.32411044587855
 20
-547.02001582886874
 30
0.0
 40
33.960380005025492
 50
267.60408030009341
 51
296.88452278421408
  0
ARC
  5
C52
  8
DATA
  6
CONTINUOUS
 62
     7
 10
-537.14227549019711
 20
-652.99093960968366
 30
0.0
 40
30.915196674948191
 50
45.764326494780228
 51
76.159464673538011
  0
CIRCLE
  5
C53
  8
DATA
  6
CONTINUOUS
 62
     7
 10
-580.10238060000006
 20
-673.72321740000007
 30
0.0
 40
4.427245400000059
  0
ARC
  5
C54
  8
DATA
  6
CONTINUOUS
 62
     7
 10
-530.14975000000004
 20
-649.29517380000004
 30
0.0
 40
43.932678199999927
 50
172.356852
 51
187.643148
  0
ARC
  5
C55
  8
DATA
  6
CONTINUOUS
 62
     7
 10
-564.7559546
 20
-683.90137840000011
 30
0.0
 40
5.0311811999999669
 50
187.64314799999971
 51
262.35691500000041
  0
LINE
  5
C56
  8
DATA
  6
CONTINUOUS
 62
     7
 10
-565.42511760000002
 20
-688.88788100000011
 30
0.0
 11
-535.99291840000001
 21
-692.83753020000006
 31
0.0
  0
LINE
  5
C57
  8
DATA
  6
CONTINUOUS
 62
     7
 10
-569.74243179999985
 20
-684.57054140000014
 30
0.0
 11
-573.6920809999998
 21
-655.13834220000012
 31
0.0
  0
ARC
  5
C58
  8
DATA
  6
CONTINUOUS
 62
     7
 10
-564.7559546
 20
-614.6889692000002
 30
0.0
 40
5.0311812000000149
 50
97.643084999999544
 51
172.356852
  0
LINE
  5
C59
  8
DATA
  6
CONTINUOUS
 62
     7
 10
-569.74243179999985
 20
-614.01980620000018
 30
0.0
 11
-571.74826979999966
 21
-628.96689340000012
 31
0.0
  0
LINE
  5
C5A
  8
DATA
  6
CONTINUOUS
 62
     7
 10
-571.74826979999966
 20
-628.96689340000012
 30
0.0
 11
-573.6920809999998
 21
-643.45200540000008
 31
0.0
  0
LINE
  5
C5B
  8
DATA
  6
CONTINUOUS
 62
     7
 10
-565.42511760000002
 20
-609.70246660000021
 30
0.0
 11
-550.28493959999992
 21
-607.67074600000012
 31
0.0
  0
ARC
  5
C5C
  8
DATA
  6
CONTINUOUS
 62
     7
 10
-573.49863460000017
 20
-559.97546419999992
 30
0.0
 40
7.5223115999999663
 50
180.0
 51
0.0
  0
ARC
  5
C5D
  8
DATA
  6
CONTINUOUS
 62
     7
 10
-573.49863460000017
 20
-559.97546419999992
 30
0.0
 40
5.0998627999999826
 50
180.0
 51
0.0
  0
LINE
  5
C5E
  8
DATA
  6
CONTINUOUS
 62
     7
 10
-565.97632300000021
 20
-559.97546419999992
 30
0.0
 11
-565.97632300000021
 21
-549.77573859999995
 31
0.0
  0
LINE
  5
C5F
  8
DATA
  6
CONTINUOUS
 62
     7
 10
-581.02092080000011
 20
-549.77573859999995
 30
0.0
 11
-581.02092080000011
 21
-559.97546419999992
 31
0.0
  0
LINE
  5
C60
  8
DATA
  6
CONTINUOUS
 62
     7
 10
-568.39874640000016
 20
-549.77573859999995
 30
0.0
 11
-568.39874640000016
 21
-559.97546419999992
 31
0.0
  0
LINE
  5
C61
  8
DATA
  6
CONTINUOUS
 62
     7
 10
-578.59849739999981
 20
-549.77573859999995
 30
0.0
 11
-578.59849739999981
 21
-559.97546419999992
 31
0.0
  0
ARC
  5
C62
  8
DATA
  6
CONTINUOUS
 62
     7
 10
-545.19682760000001
 20
-573.62010620000001
 30
0.0
 40
0.8900000000000998
 50
180.0
 51
270.0
  0
LINE
  5
C63
  8
DATA
  6
CONTINUOUS
 62
     7
 10
-568.39874640000016
 20
-593.1246232000002
 30
0.0
 11
-568.39874640000016
 21
-565.50506959999996
 31
0.0
  0
ARC
  5
C64
  8
DATA
  6
CONTINUOUS
 62
     7
 10
-590.0216156109642
 20
-544.33138841147002
 30
0.0
 40
53.369731440612362
 50
293.90067112009308
 51
325.90403163244122
  0
ARC
  5
C65
  8
DATA
  6
CONTINUOUS
 62
     7
 10
-538.78789339489742
 20
-605.20125346123814
 30
0.0
 40
16.742984236003959
 50
124.82804127372221
 51
138.05444451807301
  0
ARC
  5
C66
  8
DATA
  6
CONTINUOUS
 62
     7
 10
-546.83912965628713
 20
-596.5388283039041
 30
0.0
 40
5.0766339939837151
 50
150.12148044207021
 51
207.79026323309381
  0
ARC
  5
C67
  8
DATA
  6
CONTINUOUS
 62
     7
 10
-537.98075429301082
 20
-593.22577520573032
 30
0.0
 40
14.507597415288901
 50
203.0488952682899
 51
235.66316845832679
  0
ARC
  5
C68
  8
DATA
  6
CONTINUOUS
 62
     7
 10
-550.60081205118877
 20
-614.58063307978125
 30
0.0
 40
10.372313384846381
 50
15.354980291475499
 51
64.673989735695542
  0
ARC
  5
C69
  8
DATA
  6
CONTINUOUS
 62
     7
 10
-521.87372361608504
 20
-609.06803265175165
 30
0.0
 40
18.92822139847328
 50
188.4028622989585
 51
211.54373332738999
  0
ARC
  5
C6A
  8
DATA
  6
CONTINUOUS
 62
     7
 10
-526.23468092521273
 20
-605.20768803628334
 30
0.0
 40
18.109485630152601
 50
229.46137394330569
 51
258.81753504786423
  0
CIRCLE
  5
C6B
  8
DATA
  6
CONTINUOUS
 62
     7
 10
-564.25511740000002
 20
-615.18980640000007
 30
0.0
 40
3.0117288000000131
  0
LINE
  5
C6C
  8
DATA
  6
CONTINUOUS
 62
     7
 10
-565.7850609999997
 20
-615.18980640000007
 30
0.0
 11
-562.72514839999985
 21
-615.18980640000007
 31
0.0
  0
LINE
  5
C6D
  8
DATA
  6
CONTINUOUS
 62
     7
 10
-564.2551173999999
 20
-616.7197500000002
 30
0.0
 11
-564.2551173999999
 21
-613.65983740000001
 31
0.0
  0
LINE
  5
C6E
  8
DATA
  6
CONTINUOUS
 62
     7
 10
-582.35142359999998
 20
-673.7232047
 30
0.0
 11
-577.85333759999946
 21
-673.7232047
 31
0.0
  0
LINE
  5
C6F
  8
DATA
  6
CONTINUOUS
 62
     7
 10
-580.10239329999968
 20
-675.97226040000021
 30
0.0
 11
-580.10239329999968
 21
-671.47417440000004
 31
0.0
  0
LINE
  5
C70
  8
DATA
  6
CONTINUOUS
 62
     7
 10
-582.88037859999986
 20
-692.28711219999957
 30
0.0
 11
-587.2152441999998
 21
-692.28711219999957
 31
0.0
  0
ARC
  5
C71
  8
DATA
  6
CONTINUOUS
 62
     7
 10
-589.51018499999975
 20
-687.18724940000004
 30
0.0
 40
1.5299689999999371
 50
0.0
 51
90.0
  0
ARC
  5
C72
  8
DATA
  6
CONTINUOUS
 62
     7
 10
-587.2152441999998
 20
-691.5221403999999
 30
0.0
 40
0.7649718000000121
 50
180.0
 51
270.0
  0
LINE
  5
C73
  8
DATA
  6
CONTINUOUS
 62
     7
 10
-587.98024139999984
 20
-691.5221403999999
 30
0.0
 11
-587.98024139999984
 21
-687.18724940000004
 31
0.0
  0
LINE
  5
C74
  8
DATA
  6
CONTINUOUS
 62
     7
 10
-591.04015399999957
 20
-685.65728039999976
 30
0.0
 11
-589.51018499999975
 21
-685.65728039999976
 31
0.0
  0
ARC
  5
C75
  8
DATA
  6
CONTINUOUS
 62
     7
 10
-582.88037859999986
 20
-693.81708120000008
 30
0.0
 40
1.5299689999999371
 50
0.0
 51
90.0
  0
ARC
  5
C76
  8
DATA
  6
CONTINUOUS
 62
     7
 10
-515.10264699999993
 20
-573.62010620000001
 30
0.0
 40
0.8899999999999861
 50
270.0
 51
0.0
  0
ARC
  5
C77
  8
DATA
  6
CONTINUOUS
 62
     7
 10
-470.27788438903571
 20
-544.33138841147002
 30
0.0
 40
53.369731440612313
 50
214.0959683675585
 51
217.80577976403231
  0
LINE
  5
C78
  8
DATA
  6
CONTINUOUS
 62
     7
 10
-568.39874640000016
 20
-593.1246232000002
 30
0.0
 11
-550.38455337354753
 21
-593.1246232000002
 31
0.0
  0
LINE
  5
C79
  8
DATA
  6
CONTINUOUS
 62
     7
 10
-550.28493959999992
 20
-607.67074600000012
 30
0.0
 11
-543.74896022492237
 21
-606.79365603446081
 31
0.0
  0
LINE
  5
C7A
  8
DATA
  6
CONTINUOUS
 62
     7
 10
-542.64974999999993
 20
-607.24600000000021
 30
0.0
 11
-542.64974999999993
 21
-582.24600000000021
 31
0.0
  0
LINE
  5
C7B
  8
DATA
  6
CONTINUOUS
 62
     7
 10
-517.64975000000004
 20
-607.24600000000021
 30
0.0
 11
-517.64975000000004
 21
-582.24600000000021
 31
0.0
  0
ARC
  5
C7C
  8
DATA
  6
CONTINUOUS
 62
     7
 10
-554.32921611694155
 20
-584.07637362112246
 30
0.0
 40
9.4989677826083874
 50
309.00972420981401
 51
357.09617372908508
  0
ARC
  5
C7D
  8
DATA
  6
CONTINUOUS
 62
     7
 10
-540.8065811928202
 20
-585.18307233024541
 30
0.0
 40
4.084045711496465
 50
95.440332030984635
 51
171.19029933323691
  0
ARC
  5
C7E
  8
DATA
  6
CONTINUOUS
 62
     7
 10
-535.17007749621985
 20
-601.55003670981785
 30
0.0
 40
21.302036349202609
 50
75.242405855266298
 51
106.4259656328507
  0
LINE
  5
C7F
  8
DATA
  6
CONTINUOUS
 62
     7
 10
-542.64974999999993
 20
-582.24600000000021
 30
0.0
 11
-517.64974999999993
 21
-582.24600000000021
 31
0.0
  0
LINE
  5
C80
  8
DATA
  6
CONTINUOUS
 62
     7
 10
-542.64974999999993
 20
-587.24600000000021
 30
0.0
 11
-517.64974999999993
 21
-587.24600000000021
 31
0.0
  0
LINE
  5
C81
  8
DATA
  6
CONTINUOUS
 62
     7
 10
-542.64974999999993
 20
-607.24600000000021
 30
0.0
 11
-517.64974999999993
 21
-607.24599999999975
 31
0.0
  0
TEXT
  5
C82
  8
DATA
 62
     7
 10
-541.14975000000004
 20
-585.74600000000021
 30
0.0
 40
2.1484375
  1
CONTROL
 41
0.8
 11
-541.14975000000004
 21
-583.59756250000021
 31
0.0
 73
     3
  0
TEXT
  5
C83
  8
DATA
 62
     7
 10
-521.65168785579226
 20
-585.74600000000021
 30
0.0
 40
2.1484375
  1
23
 41
0.8
 11
-521.65168785579226
 21
-583.59756250000021
 31
0.0
 73
     3
  0
ARC
  5
C84
  8
DATA
  6
STYLE_11
 62
     7
 10
-567.97728699175605
 20
-636.35260280196042
 30
0.0
 40
10.67864241194726
 50
85.484358719388652
 51
99.183682166666259
  0
ARC
  5
C85
  8
DATA
  6
STYLE_11
 62
     7
 10
-566.65230981349225
 20
-616.83604137262307
 30
0.0
 40
8.8842731608658863
 50
266.87556408756302
 51
277.40218609624628
  0
ARC
  5
C86
  8
DATA
  6
STYLE_11
 62
     7
 10
-565.70593599040149
 20
-623.5972461388634
 30
0.0
 40
2.05859425495332
 50
275.52544733671948
 51
341.93046329829792
  0
ARC
  5
C87
  8
DATA
  6
STYLE_11
 62
     7
 10
-610.86983149191087
 20
-605.53115894808604
 30
0.0
 40
50.697605487987794
 50
338.34946250738682
 51
340.15558981513158
  0
ARC
  5
C88
  8
DATA
  6
STYLE_11
 62
     7
 10
-558.82668422086135
 20
-624.21650845627687
 30
0.0
 40
4.599076893140281
 50
113.851022852624
 51
161.2913631184949
  0
ARC
  5
C89
  8
DATA
  6
STYLE_11
 62
     7
 10
-565.59488092424465
 20
-608.86785497024073
 30
0.0
 40
12.17559894381661
 50
293.77484537040169
 51
324.08647950858358
  0
ARC
  5
C8A
  8
DATA
  6
STYLE_11
 62
     7
 10
-547.24726071364125
 20
-622.89845439656222
 30
0.0
 40
10.93059177037153
 50
117.269769426637
 51
140.93256384467881
  0
ARC
  5
C8B
  8
DATA
  6
STYLE_11
 62
     7
 10
-555.5799445631659
 20
-606.27235457641962
 30
0.0
 40
7.6684510252585749
 50
295.69174912903418
 51
318.49295417256599
  0
ARC
  5
C8C
  8
DATA
  6
STYLE_11
 62
     7
 10
-551.68771864202097
 20
-609.95878443703475
 30
0.0
 40
2.3177191680341802
 50
322.97809557773138
 51
23.671206660054281
  0
ARC
  5
C8D
  8
DATA
  6
STYLE_11
 62
     7
 10
-555.11734181716565
 20
-611.10321747585465
 30
0.0
 40
5.9273916372236037
 50
20.491250841353821
 51
35.386305661161963
  0
ARC
  5
C8E
  8
DATA
  6
STYLE_11
 62
     7
 10
-569.2873969326281
 20
-628.11883035470316
 30
0.0
 40
2.3414111729668781
 50
99.692526393268253
 51
165.82523941205179
  0
LINE
  5
C8F
  8
DATA
  6
CONTINUOUS
 62
     7
 10
-545.19682760000001
 20
-535.24109659999988
 30
0.0
 11
-515.10264699999993
 21
-535.24109659999988
 31
0.0
  0
CIRCLE
  5
C90
  8
DATA
  6
CONTINUOUS
 62
     7
 10
-580.10238060000006
 20
-535.60479920000012
 30
0.0
 40
4.427245400000059
  0
ARC
  5
C91
  8
DATA
  6
CONTINUOUS
 62
     7
 10
-545.19682760000001
 20
-536.13109659999986
 30
0.0
 40
0.8899999999999861
 50
90.0
 51
180.0
  0
LINE
  5
C92
  8
DATA
  6
CONTINUOUS
 62
     7
 10
-582.35142359999998
 20
-535.60478650000005
 30
0.0
 11
-577.85333759999946
 21
-535.60478650000005
 31
0.0
  0
LINE
  5
C93
  8
DATA
  6
CONTINUOUS
 62
     7
 10
-580.10239329999968
 20
-537.85384220000014
 30
0.0
 11
-580.10239329999968
 21
-533.35575619999997
 31
0.0
  0
ARC
  5
C94
  8
DATA
  6
CONTINUOUS
 62
     7
 10
-515.10264699999993
 20
-536.13109659999986
 30
0.0
 40
0.8899999999999861
 50
0.0
 51
90.0
  0
LINE
  5
C95
  8
DATA
  6
CONTINUOUS
 62
     7
 10
-494.32315159999979
 20
-559.97546419999992
 30
0.0
 11
-494.32315159999979
 21
-549.77573859999995
 31
0.0
  0
LINE
  5
C96
  8
DATA
  6
CONTINUOUS
 62
     7
 10
-491.90072819999989
 20
-549.77573859999995
 30
0.0
 11
-491.90072819999989
 21
-559.97546419999992
 31
0.0
  0
LINE
  5
C97
  8
DATA
  6
CONTINUOUS
 62
     7
 10
-491.90072819999989
 20
-573.31472551493891
 30
0.0
 11
-491.90072819999989
 21
-565.50506959999996
 31
0.0
  0
LINE
  5
C98
  8
DATA
  6
CONTINUOUS
 62
     7
 10
-478.94906500000002
 20
-695.3470248000001
 30
0.0
 11
-478.94906500000002
 21
-693.81708120000008
 31
0.0
  0
LINE
  5
C99
  8
DATA
  6
CONTINUOUS
 62
     7
 10
-467.17916219999989
 20
-696.36701259999995
 30
0.0
 11
-467.17916219999989
 21
-643.64971900000012
 31
0.0
  0
LINE
  5
C9A
  8
DATA
  6
CONTINUOUS
 62
     7
 10
-468.19914999999992
 20
-695.34702479999999
 30
0.0
 11
-468.19914999999992
 21
-642.33846564397516
 31
0.0
  0
ARC
  5
C9B
  8
DATA
  6
CONTINUOUS
 62
     7
 10
-461.56974999999989
 20
-698.73000000000002
 30
0.0
 40
1.26999999999998
 50
270.0
 51
0.0
  0
CIRCLE
  5
C9C
  8
DATA
  6
CONTINUOUS
 62
     7
 10
-480.19709399999988
 20
-673.72321740000007
 30
0.0
 40
4.427245399999947
  0
LINE
  5
C9D
  8
DATA
  6
CONTINUOUS
 62
     7
 10
-467.17916219999989
 20
-643.64971900000012
 30
0.0
 11
-467.17916219999989
 21
-563.25755060000017
 31
0.0
  0
ARC
  5
C9E
  8
DATA
  6
CONTINUOUS
 62
     7
 10
-530.14975000000004
 20
-649.29517380000004
 30
0.0
 40
43.932678200000041
 50
352.35685199999978
 51
7.6431480000000489
  0
LINE
  5
C9F
  8
DATA
  6
CONTINUOUS
 62
     7
 10
-490.55704279999981
 20
-684.57054140000014
 30
0.0
 11
-486.60739359999991
 21
-655.13834220000012
 31
0.0
  0
LINE
  5
CA0
  8
DATA
  6
CONTINUOUS
 62
     7
 10
-479.2785538
 20
-549.77573859999995
 30
0.0
 11
-479.2785538
 21
-559.97546419999992
 31
0.0
  0
LINE
  5
CA1
  8
DATA
  6
CONTINUOUS
 62
     7
 10
-481.70097720000001
 20
-549.77573859999995
 30
0.0
 11
-481.70097720000001
 21
-559.97546419999992
 31
0.0
  0
ARC
  5
CA2
  8
DATA
  6
CONTINUOUS
 62
     7
 10
-472.81154546614761
 20
-571.38245728755385
 30
0.0
 40
9.8862454925131757
 50
55.269357242216699
 51
130.07101811380619
  0
ARC
  5
CA3
  8
DATA
  6
CONTINUOUS
 62
     7
 10
-418.83692454865712
 20
-635.7442132496941
 30
0.0
 40
93.884421697950387
 50
129.99284333891919
 51
134.7341204649106
  0
ARC
  5
CA4
  8
DATA
  6
CONTINUOUS
 62
     7
 10
-480.44566025749413
 20
-675.62981577492837
 30
0.0
 40
38.019901727989357
 50
82.519712933039813
 51
106.01836229799611
  0
ARC
  5
CA5
  8
DATA
  6
CONTINUOUS
 62
     7
 10
-478.78207450595829
 20
-651.62296742724209
 30
0.0
 40
14.078361568815559
 50
34.495934052299638
 51
76.5020522403847
  0
LINE
  5
CA6
  8
DATA
  6
CONTINUOUS
 62
     7
 10
-482.44613699999979
 20
-673.7232047
 30
0.0
 11
-477.94805099999991
 21
-673.7232047
 31
0.0
  0
LINE
  5
CA7
  8
DATA
  6
CONTINUOUS
 62
     7
 10
-480.19710670000001
 20
-675.97226040000021
 30
0.0
 11
-480.19710670000001
 21
-671.47417440000004
 31
0.0
  0
ARC
  5
CA8
  8
DATA
  6
CONTINUOUS
 62
     7
 10
-470.78928960000002
 20
-687.18724940000004
 30
0.0
 40
1.5299690000000501
 50
90.0
 51
180.0
  0
ARC
  5
CA9
  8
DATA
  6
CONTINUOUS
 62
     7
 10
-473.08423039999991
 20
-691.5221403999999
 30
0.0
 40
0.7649718000000121
 50
270.0
 51
0.0
  0
ARC
  5
CAA
  8
DATA
  6
CONTINUOUS
 62
     7
 10
-477.41912139999999
 20
-693.81708120000008
 30
0.0
 40
1.5299690000000501
 50
90.0
 51
180.0
  0
LINE
  5
CAB
  8
DATA
  6
CONTINUOUS
 62
     7
 10
-472.31923319999993
 20
-691.5221403999999
 30
0.0
 11
-472.31923319999993
 21
-687.18724940000004
 31
0.0
  0
LINE
  5
CAC
  8
DATA
  6
CONTINUOUS
 62
     7
 10
-477.41912139999999
 20
-692.28711219999957
 30
0.0
 11
-473.08423039999991
 21
-692.28711219999957
 31
0.0
  0
LINE
  5
CAD
  8
DATA
  6
CONTINUOUS
 62
     7
 10
-470.78928960000002
 20
-685.65728039999976
 30
0.0
 11
-469.2593205999998
 21
-685.65728039999976
 31
0.0
  0
LINE
  5
CAE
  8
DATA
  6
CONTINUOUS
 62
     7
 10
-487.30757817040291
 20
-638.23426777837608
 30
0.0
 11
-486.60739359999991
 21
-643.45200540000008
 31
0.0
  0
LINE
  5
CAF
  8
DATA
  6
CONTINUOUS
 62
     7
 10
-469.2593205999998
 20
-685.65728039999976
 30
0.0
 11
-469.2593205999998
 21
-641.25390659663356
 31
0.0
  0
CIRCLE
  5
CB0
  8
DATA
  6
CONTINUOUS
 62
     7
 10
-480.19709399999988
 20
-535.60479920000012
 30
0.0
 40
4.427245399999947
  0
LINE
  5
CB1
  8
DATA
  6
CONTINUOUS
 62
     7
 10
-482.44613699999979
 20
-535.60478650000005
 30
0.0
 11
-477.94805099999991
 21
-535.60478650000005
 31
0.0
  0
LINE
  5
CB2
  8
DATA
  6
CONTINUOUS
 62
     7
 10
-480.19710670000001
 20
-537.85384220000014
 30
0.0
 11
-480.19710670000001
 21
-533.35575619999997
 31
0.0
  0
LINE
  5
CB3
  8
DATA
  6
CONTINUOUS
 62
     7
 10
-592.10035000000016
 20
-513.98099180000031
 30
0.0
 11
-468.19914999999992
 21
-513.98099180000031
 31
0.0
  0
LINE
  5
CB4
  8
DATA
  6
CONTINUOUS
 62
     7
 10
-593.12031239999976
 20
-512.96100400000012
 30
0.0
 11
-467.17916219999989
 21
-512.96100400000012
 31
0.0
  0
LINE
  5
CB5
  8
DATA
  6
CONTINUOUS
 62
     7
 10
-461.56974999999989
 20
-509.24599999999998
 30
0.0
 11
-598.72975000000019
 21
-509.24599999999998
 31
0.0
  0
LINE
  5
CB6
  8
DATA
  6
CONTINUOUS
 62
     7
 10
-568.39874640000016
 20
-516.62657960000001
 30
0.0
 11
-491.90072819999989
 21
-516.62657960000001
 31
0.0
  0
LINE
  5
CB7
  8
DATA
  6
CONTINUOUS
 62
     7
 10
-582.88037860000009
 20
-517.04090440000027
 30
0.0
 11
-587.2152441999998
 21
-517.04090440000027
 31
0.0
  0
ARC
  5
CB8
  8
DATA
  6
CONTINUOUS
 62
     7
 10
-589.51018499999975
 20
-522.14076720000003
 30
0.0
 40
1.5299690000000501
 50
270.0
 51
0.0
  0
ARC
  5
CB9
  8
DATA
  6
CONTINUOUS
 62
     7
 10
-587.2152441999998
 20
-517.80587620000006
 30
0.0
 40
0.7649718000000121
 50
90.0
 51
180.0
  0
LINE
  5
CBA
  8
DATA
  6
CONTINUOUS
 62
     7
 10
-587.98024140000018
 20
-517.80587620000006
 30
0.0
 11
-587.98024140000018
 21
-522.14076720000003
 31
0.0
  0
LINE
  5
CBB
  8
DATA
  6
CONTINUOUS
 62
     7
 10
-591.04015400000003
 20
-523.67073620000019
 30
0.0
 11
-589.51018499999975
 21
-523.67073620000019
 31
0.0
  0
ARC
  5
CBC
  8
DATA
  6
CONTINUOUS
 62
     7
 10
-582.88037860000009
 20
-515.51093540000011
 30
0.0
 40
1.5299690000000501
 50
270.0
 51
0.0
  0
LINE
  5
CBD
  8
DATA
  6
CONTINUOUS
 62
     7
 10
-581.35040960000015
 20
-513.98099180000031
 30
0.0
 11
-581.35040960000015
 21
-515.51093540000011
 31
0.0
  0
ARC
  5
CBE
  8
DATA
  6
CONTINUOUS
 62
     7
 10
-598.72975000000019
 20
-510.51600000000002
 30
0.0
 40
1.26999999999998
 50
90.0
 51
180.0
  0
ARC
  5
CBF
  8
DATA
  6
CONTINUOUS
 62
     7
 10
-477.41912139999999
 20
-515.51093540000011
 30
0.0
 40
1.5299689999999371
 50
180.0
 51
270.0
  0
ARC
  5
CC0
  8
DATA
  6
CONTINUOUS
 62
     7
 10
-470.78928960000002
 20
-522.14076720000003
 30
0.0
 40
1.5299689999999371
 50
180.0
 51
270.0
  0
ARC
  5
CC1
  8
DATA
  6
CONTINUOUS
 62
     7
 10
-473.08423039999991
 20
-517.80587620000006
 30
0.0
 40
0.7649718000000121
 50
0.0
 51
90.0
  0
LINE
  5
CC2
  8
DATA
  6
CONTINUOUS
 62
     7
 10
-478.94906500000002
 20
-513.98099180000031
 30
0.0
 11
-478.94906500000002
 21
-515.51093540000011
 31
0.0
  0
LINE
  5
CC3
  8
DATA
  6
CONTINUOUS
 62
     7
 10
-477.41912139999999
 20
-517.04090440000027
 30
0.0
 11
-473.08423039999991
 21
-517.04090440000027
 31
0.0
  0
LINE
  5
CC4
  8
DATA
  6
CONTINUOUS
 62
     7
 10
-472.3192332000001
 20
-517.80587620000006
 30
0.0
 11
-472.3192332000001
 21
-522.14076720000003
 31
0.0
  0
LINE
  5
CC5
  8
DATA
  6
CONTINUOUS
 62
     7
 10
-470.78928960000002
 20
-523.67073620000019
 30
0.0
 11
-469.25932060000002
 21
-523.67073620000019
 31
0.0
  0
ARC
  5
CC6
  8
DATA
  6
CONTINUOUS
 62
     7
 10
-461.56974999999989
 20
-510.51600000000002
 30
0.0
 40
1.26999999999998
 50
0.0
 51
90.0
  0
ARC
  5
CC7
  8
DATA
  6
CONTINUOUS
 62
     7
 10
-530.14975767177884
 20
-44.476000000000802
 30
0.0
 40
255.52399999999989
 50
255.7332311960613
 51
284.26677823053558
  0
ARC
  5
CC8
  8
DATA
  6
CONTINUOUS
 62
     7
 10
-530.14976505324023
 20
-42.169705400000332
 30
0.0
 40
255.52399999999989
 50
256.67021629622269
 51
283.3297911749458
  0
ARC
  5
CC9
  8
DATA
  6
CONTINUOUS
 62
     7
 10
-500.55381397612177
 20
-200.84193020000001
 30
0.0
 40
12.49999999999995
 50
22.30000000000031
 51
89.999999999999986
  0
LINE
  5
CCA
  8
DATA
  6
CONTINUOUS
 62
     7
 10
-559.74568602387774
 20
-188.34193020000001
 30
0.0
 11
-500.55381397612177
 21
-188.34193020000001
 31
0.0
  0
LINE
  5
CCB
  8
DATA
  6
CONTINUOUS
 62
     7
 10
-599.99974999999995
 20
-266.04959799999989
 30
0.0
 11
-571.31080750369995
 21
-196.0987282058874
 31
0.0
  0
LINE
  5
CCC
  8
DATA
  6
CONTINUOUS
 62
     7
 10
-598.61850077936072
 20
-279.88793059799173
 30
0.0
 11
-599.99975000000006
 21
-266.04959799999989
 31
0.0
  0
ARC
  5
CCD
  8
DATA
  6
CONTINUOUS
 62
     7
 10
-586.18030615484565
 20
-278.64643372619622
 30
0.0
 40
12.50000000000008
 50
185.70000000000019
 51
256.6702162962228
  0
LINE
  5
CCE
  8
DATA
  6
CONTINUOUS
 62
     7
 10
-593.12031239999976
 20
-292.11933993309879
 30
0.0
 11
-593.12031239999976
 21
-289.04289049363462
 31
0.0
  0
ARC
  5
CCF
  8
DATA
  6
CONTINUOUS
 62
     7
 10
-559.74568602387774
 20
-200.84193020000001
 30
0.0
 40
12.499999999999879
 50
90.0
 51
157.6999999999997
  0
LINE
  5
CD0
  8
DATA
  6
CONTINUOUS
 62
     7
 10
-488.98869249629962
 20
-196.0987282058874
 30
0.0
 11
-460.29974999999979
 21
-266.04959799999989
 31
0.0
  0
LINE
  5
CD1
  8
DATA
  6
CONTINUOUS
 62
     7
 10
-461.68099849138451
 20
-279.88792329180342
 30
0.0
 11
-460.29974999999979
 21
-266.04959799999989
 31
0.0
  0
ARC
  5
CD2
  8
DATA
  6
CONTINUOUS
 62
     7
 10
-474.11919311589998
 20
-278.64642642000803
 30
0.0
 40
12.499999999999959
 50
283.32979117494602
 51
354.30000000000013
  0
LINE
  5
CD3
  8
DATA
  6
CONTINUOUS
 62
     7
 10
-467.17916220000001
 20
-292.11932957285529
 30
0.0
 11
-467.17916220000001
 21
-289.04286671880038
 31
0.0
  0
LINE
  5
CD4
  8
DATA
  6
CONTINUOUS
 62
     7
 10
-44.049592799999928
 20
-513.33824545716095
 30
0.0
 11
-44.049592799999807
 21
-695.98977114283844
 31
0.0
  0
LINE
  5
CD5
  8
DATA
  6
CONTINUOUS
 62
     7
 10
-16.04959800000017
 20
-511.8711451714363
 30
0.0
 11
-16.049597999999961
 21
-697.37485482856357
 31
0.0
  0
LINE
  5
CD6
  8
DATA
  6
CONTINUOUS
 62
     7
 10
-36.877599260709999
 20
-510.04893197506118
 30
0.0
 11
-36.877599260709772
 21
-699.19706802493874
 31
0.0
  0
LINE
  5
CD7
  8
DATA
  6
CONTINUOUS
 62
     7
 10
-50.000000000000021
 20
-694.79701259999956
 30
0.0
 11
-50.000000000000021
 21
-514.53100400000005
 31
0.0
  0
LINE
  5
CD8
  8
DATA
  6
CONTINUOUS
 62
     7
 10
61.658069800000007
 20
-689.13767780560124
 30
0.0
 11
61.658069800000007
 21
-520.10832219439885
 31
0.0
  0
LINE
  5
CD9
  8
DATA
  6
CONTINUOUS
 62
     7
 10
-45.986870943342772
 20
-699.99402568120593
 30
0.0
 11
60.224904256657268
 21
-690.70170348680688
 31
0.0
  0
ARC
  5
CDA
  8
DATA
  6
CONTINUOUS
 62
     7
 10
-48.429999999999971
 20
-694.79701259999956
 30
0.0
 40
1.57000000000005
 50
180.0
 51
275.00003524633422
  0
ARC
  5
CDB
  8
DATA
  6
CONTINUOUS
 62
     7
 10
-46.123705400000063
 20
-698.42999999999995
 30
0.0
 40
1.57000000000005
 50
180.00000000000401
 51
274.99999782188962
  0
LINE
  5
CDC
  8
DATA
  6
CONTINUOUS
 62
     7
 10
-48.293164521752843
 20
-696.36103819182802
 30
0.0
 11
-44.049592799999928
 21
-695.98977114283844
 31
0.0
  0
LINE
  5
CDD
  8
DATA
  6
CONTINUOUS
 62
     7
 10
-47.693705399999892
 20
-698.42999999999995
 30
0.0
 11
-47.693705399999892
 21
-696.30859194283858
 31
0.0
  0
ARC
  5
CDE
  8
DATA
  6
CONTINUOUS
 62
     7
 10
60.088069799999957
 20
-689.13767780560124
 30
0.0
 40
1.569999999999919
 50
274.99999782189008
 51
0.0
  0
LINE
  5
CDF
  8
DATA
  6
CONTINUOUS
 62
     7
 10
-45.986870943342772
 20
-509.25197431879428
 30
0.0
 11
60.224904256657268
 21
-518.54429651319288
 31
0.0
  0
ARC
  5
CE0
  8
DATA
  6
CONTINUOUS
 62
     7
 10
-46.123705400000063
 20
-510.8159999999998
 30
0.0
 40
1.5700000000000309
 50
85.000002178110293
 51
180.0
  0
ARC
  5
CE1
  8
DATA
  6
CONTINUOUS
 62
     7
 10
-48.429999999999971
 20
-514.53100400000005
 30
0.0
 40
1.5700000000000021
 50
84.999964753665424
 51
180.0
  0
LINE
  5
CE2
  8
DATA
  6
CONTINUOUS
 62
     7
 10
-48.293164521752942
 20
-512.96697840817217
 30
0.0
 11
-44.049592799999928
 21
-513.33824545716095
 31
0.0
  0
LINE
  5
CE3
  8
DATA
  6
CONTINUOUS
 62
     7
 10
-47.693705400000127
 20
-513.01942465716138
 30
0.0
 11
-47.693705399999892
 21
-510.8159999999998
 31
0.0
  0
ARC
  5
CE4
  8
DATA
  6
CONTINUOUS
 62
     7
 10
60.088069799999957
 20
-520.10832219439885
 30
0.0
 40
1.57000000000005
 50
0.0
 51
85.000002178110265
  0
ARC
  5
CE5
  8
DATA
  6
CONTINUOUS
 62
     7
 10
-490.8997500000001
 20
208.5367100000004
 30
0.0
 40
11.09999999999998
 50
16.217194563217362
 51
343.78280543678369
  0
LINE
  5
CE6
  8
DATA
  6
CONTINUOUS
 62
     7
 10
-599.99975000000006
 20
171.7867100000004
 30
0.0
 11
-599.99975000000006
 21
245.2867100000004
 31
0.0
  0
LINE
  5
CE7
  8
DATA
  6
CONTINUOUS
 62
     7
 10
-560.49975000000018
 20
245.2867100000004
 30
0.0
 11
-560.49975000000018
 21
171.7867100000004
 31
0.0
  0
ARC
  5
CE8
  8
DATA
  6
CONTINUOUS
 62
     7
 10
-580.24975000000018
 20
178.0367100000004
 30
0.0
 40
9.75
 50
0.0
 51
180.0
  0
LINE
  5
CE9
  8
DATA
  6
CONTINUOUS
 62
     7
 10
-560.49975000000018
 20
171.7867100000004
 30
0.0
 11
-599.99975000000006
 21
171.7867100000004
 31
0.0
  0
LINE
  5
CEA
  8
DATA
  6
CONTINUOUS
 62
     7
 10
-589.99975000000018
 20
171.7867100000004
 30
0.0
 11
-589.99975000000018
 21
178.0367100000004
 31
0.0
  0
CIRCLE
  5
CEB
  8
DATA
  6
CONTINUOUS
 62
     7
 10
-580.24975000000018
 20
178.5367100000004
 30
0.0
 40
3.3999999999999759
  0
LINE
  5
CEC
  8
DATA
  6
CONTINUOUS
 62
     7
 10
-570.49975000000006
 20
171.7867100000004
 30
0.0
 11
-570.49975000000006
 21
178.0367100000004
 31
0.0
  0
ARC
  5
CED
  8
DATA
  6
CONTINUOUS
 62
     7
 10
-580.24975000000018
 20
305.88670999999999
 30
0.0
 40
11.099999999999939
 50
106.2171945632186
 51
73.782805436783931
  0
LINE
  5
CEE
  8
DATA
  6
CONTINUOUS
 62
     7
 10
-599.99975000000006
 20
245.2867100000004
 30
0.0
 11
-560.49975000000018
 21
245.2867100000004
 31
0.0
  0
ARC
  5
CEF
  8
DATA
  6
CONTINUOUS
 62
     7
 10
-580.24975000000018
 20
239.03671000000011
 30
0.0
 40
9.75
 50
180.0
 51
0.0
  0
CIRCLE
  5
CF0
  8
DATA
  6
CONTINUOUS
 62
     7
 10
-580.24975000000018
 20
208.53671
 30
0.0
 40
11.10000000000001
  0
LINE
  5
CF1
  8
DATA
  6
CONTINUOUS
 62
     7
 10
-589.99975000000018
 20
245.2867100000004
 30
0.0
 11
-589.99975000000018
 21
239.03671000000011
 31
0.0
  0
CIRCLE
  5
CF2
  8
DATA
  6
CONTINUOUS
 62
     7
 10
-580.24975000000018
 20
238.5367100000004
 30
0.0
 40
3.3999999999999759
  0
LINE
  5
CF3
  8
DATA
  6
CONTINUOUS
 62
     7
 10
-570.49975000000006
 20
245.2867100000004
 30
0.0
 11
-570.49975000000006
 21
239.03671000000011
 31
0.0
  0
LINE
  5
CF4
  8
DATA
  6
CONTINUOUS
 62
     7
 10
-572.7497500000004
 20
335.48671000000019
 30
0.0
 11
-572.7497500000004
 21
338.1859256582789
 31
0.0
  0
LINE
  5
CF5
  8
DATA
  6
CONTINUOUS
 62
     7
 10
-587.74975000000018
 20
335.48671000000019
 30
0.0
 11
-587.74975000000018
 21
338.18592565827942
 31
0.0
  0
LINE
  5
CF6
  8
DATA
  6
CONTINUOUS
 62
     7
 10
-583.34975000000054
 20
329.38671000000051
 30
0.0
 11
-583.34975000000054
 21
316.54504007557961
 31
0.0
  0
LINE
  5
CF7
  8
DATA
  6
CONTINUOUS
 62
     7
 10
-577.14975000000015
 20
316.54504007557961
 30
0.0
 11
-577.14975000000015
 21
329.38671000000028
 31
0.0
  0
LINE
  5
CF8
  8
DATA
  6
CONTINUOUS
 62
     7
 10
-585.09949226119284
 20
329.38671000000028
 30
0.0
 11
-585.09949226119284
 21
334.18671000000052
 31
0.0
  0
LINE
  5
CF9
  8
DATA
  6
CONTINUOUS
 62
     7
 10
-575.40000773880706
 20
329.38671000000028
 30
0.0
 11
-575.40000773880706
 21
334.18671000000052
 31
0.0
  0
LINE
  5
CFA
  8
DATA
  6
CONTINUOUS
 62
     7
 10
-580.24975000000018
 20
329.38671000000028
 30
0.0
 11
-580.24975000000018
 21
334.18671000000052
 31
0.0
  0
LINE
  5
CFB
  8
DATA
  6
CONTINUOUS
 62
     7
 10
-585.09949226119284
 20
329.38671000000028
 30
0.0
 11
-575.40000773880706
 21
329.38671000000028
 31
0.0
  0
LINE
  5
CFC
  8
DATA
  6
CONTINUOUS
 62
     7
 10
-587.74975000000018
 20
335.48671000000019
 30
0.0
 11
-572.74975000000006
 21
335.48671000000019
 31
0.0
  0
LINE
  5
CFD
  8
DATA
  6
CONTINUOUS
 62
     7
 10
-585.64975000000015
 20
334.18671000000052
 30
0.0
 11
-574.84975000000009
 21
334.18671000000052
 31
0.0
  0
LINE
  5
CFE
  8
DATA
  6
CONTINUOUS
 62
     7
 10
-585.64975000000015
 20
334.18671000000052
 30
0.0
 11
-585.64975000000015
 21
335.48671000000058
 31
0.0
  0
LINE
  5
CFF
  8
DATA
  6
CONTINUOUS
 62
     7
 10
-577.2497500000004
 20
334.18671000000052
 30
0.0
 11
-577.24975000000006
 21
335.48671000000058
 31
0.0
  0
LINE
  5
D00
  8
DATA
  6
CONTINUOUS
 62
     7
 10
-574.84975000000043
 20
334.18671000000052
 30
0.0
 11
-574.84975000000043
 21
335.48671000000019
 31
0.0
  0
LINE
  5
D01
  8
DATA
  6
CONTINUOUS
 62
     7
 10
-599.99975000000006
 20
346.7867100000006
 30
0.0
 11
-560.49974999999995
 21
346.7867100000006
 31
0.0
  0
ARC
  5
D02
  8
DATA
  6
CONTINUOUS
 62
     7
 10
-580.24975000000018
 20
369.01357567164308
 30
0.0
 40
31.726865671642571
 50
232.0756085708224
 51
307.9243914291776
  0
LINE
  5
D03
  8
DATA
  6
CONTINUOUS
 62
     7
 10
-589.99975000000018
 20
342.38671000000051
 30
0.0
 11
-570.49975000000006
 21
342.38671000000051
 31
0.0
  0
LINE
  5
D04
  8
DATA
  6
CONTINUOUS
 62
     7
 10
-599.74975000000006
 20
343.98671000000007
 30
0.0
 11
-599.99975000000006
 21
346.7867100000006
 31
0.0
  0
LINE
  5
D05
  8
DATA
  6
CONTINUOUS
 62
     7
 10
-589.99975000000018
 20
338.82199563106821
 30
0.0
 11
-589.99975000000018
 21
342.38671000000051
 31
0.0
  0
LINE
  5
D06
  8
DATA
  6
CONTINUOUS
 62
     7
 10
-560.74974999999995
 20
343.98671000000007
 30
0.0
 11
-560.49974999999995
 21
346.7867100000006
 31
0.0
  0
LINE
  5
D07
  8
DATA
  6
CONTINUOUS
 62
     7
 10
-570.49975000000006
 20
338.82199563106821
 30
0.0
 11
-570.49975000000006
 21
342.38671000000051
 31
0.0
  0
LINE
  5
D08
  8
DATA
  6
CONTINUOUS
 62
     7
 10
-583.34975000000054
 20
316.54504007557961
 30
0.0
 11
-577.14975000000015
 21
316.54504007557961
 31
0.0
  0
LINE
  5
D09
  8
DATA
  6
CONTINUOUS
 62
     7
 10
-459.49974999999989
 20
228.9043439050856
 30
0.0
 11
-459.49975000000001
 21
188.1690760949152
 31
0.0
  0
LINE
  5
D0A
  8
DATA
  6
CONTINUOUS
 62
     7
 10
-449.99975000000001
 20
245.2867100000004
 30
0.0
 11
-449.99975000000001
 21
171.7867100000004
 31
0.0
  0
LINE
  5
D0B
  8
DATA
  6
CONTINUOUS
 62
     7
 10
-452.79975000000002
 20
245.2867100000004
 30
0.0
 11
-452.79975000000002
 21
171.7867100000004
 31
0.0
  0
LINE
  5
D0C
  8
DATA
  6
CONTINUOUS
 62
     7
 10
-459.44160848825311
 20
187.4087901736458
 30
0.0
 11
-458.05789151174707
 21
178.414629826355
 31
0.0
  0
ARC
  5
D0D
  8
DATA
  6
CONTINUOUS
 62
     7
 10
-454.49975000000001
 20
188.1690760949152
 30
0.0
 40
5.0
 50
180.0
 51
188.7461622625558
  0
LINE
  5
D0E
  8
DATA
  6
CONTINUOUS
 62
     7
 10
-457.99975000000012
 20
171.7867100000004
 30
0.0
 11
-449.99975000000001
 21
171.7867100000004
 31
0.0
  0
LINE
  5
D0F
  8
DATA
  6
CONTINUOUS
 62
     7
 10
-457.99975000000012
 20
177.654343905085
 30
0.0
 11
-457.99975000000012
 21
171.7867100000004
 31
0.0
  0
ARC
  5
D10
  8
DATA
  6
CONTINUOUS
 62
     7
 10
-462.99974999999989
 20
177.654343905085
 30
0.0
 40
5.0
 50
0.0
 51
8.7461622625560231
  0
LINE
  5
D11
  8
DATA
  6
CONTINUOUS
 62
     7
 10
-458.05789151174707
 20
238.658790173646
 30
0.0
 11
-459.44160848825311
 21
229.66462982635559
 31
0.0
  0
LINE
  5
D12
  8
DATA
  6
CONTINUOUS
 62
     7
 10
-467.39974999999993
 20
213.38645226119311
 30
0.0
 11
-462.59975000000009
 21
213.38645226119311
 31
0.0
  0
LINE
  5
D13
  8
DATA
  6
CONTINUOUS
 62
     7
 10
-467.39974999999993
 20
203.68696773880751
 30
0.0
 11
-462.59975000000009
 21
203.68696773880751
 31
0.0
  0
LINE
  5
D14
  8
DATA
  6
CONTINUOUS
 62
     7
 10
-467.39974999999993
 20
208.5367100000004
 30
0.0
 11
-462.59975000000009
 21
208.5367100000004
 31
0.0
  0
LINE
  5
D15
  8
DATA
  6
CONTINUOUS
 62
     7
 10
-480.24141992442071
 20
211.63671000000039
 30
0.0
 11
-467.39974999999993
 21
211.63671000000039
 31
0.0
  0
LINE
  5
D16
  8
DATA
  6
CONTINUOUS
 62
     7
 10
-480.24141992442071
 20
205.4367100000004
 30
0.0
 11
-467.39974999999993
 21
205.4367100000004
 31
0.0
  0
LINE
  5
D17
  8
DATA
  6
CONTINUOUS
 62
     7
 10
-467.39974999999993
 20
213.38645226119311
 30
0.0
 11
-467.39974999999993
 21
203.68696773880751
 31
0.0
  0
LINE
  5
D18
  8
DATA
  6
CONTINUOUS
 62
     7
 10
-480.24141992442071
 20
205.4367100000004
 30
0.0
 11
-480.24141992442071
 21
211.63671000000039
 31
0.0
  0
ARC
  5
D19
  8
DATA
  6
CONTINUOUS
 62
     7
 10
-454.49975000000001
 20
228.9043439050856
 30
0.0
 40
5.0000000000000844
 50
171.2538377374442
 51
180.0
  0
LINE
  5
D1A
  8
DATA
  6
CONTINUOUS
 62
     7
 10
-461.29975000000002
 20
216.0367100000004
 30
0.0
 11
-459.49974999999989
 21
216.0367100000004
 31
0.0
  0
LINE
  5
D1B
  8
DATA
  6
CONTINUOUS
 62
     7
 10
-461.29975000000002
 20
201.0367100000006
 30
0.0
 11
-459.49975000000001
 21
201.0367100000006
 31
0.0
  0
LINE
  5
D1C
  8
DATA
  6
CONTINUOUS
 62
     7
 10
-461.29975000000002
 20
216.0367100000004
 30
0.0
 11
-461.29975000000002
 21
201.0367100000004
 31
0.0
  0
LINE
  5
D1D
  8
DATA
  6
CONTINUOUS
 62
     7
 10
-462.59974999999991
 20
213.9367100000004
 30
0.0
 11
-462.59975000000009
 21
203.13671000000039
 31
0.0
  0
LINE
  5
D1E
  8
DATA
  6
CONTINUOUS
 62
     7
 10
-462.59974999999991
 20
213.9367100000004
 30
0.0
 11
-461.29974999999968
 21
213.9367100000004
 31
0.0
  0
LINE
  5
D1F
  8
DATA
  6
CONTINUOUS
 62
     7
 10
-462.59975000000009
 20
205.5367100000004
 30
0.0
 11
-461.29974999999968
 21
205.5367100000004
 31
0.0
  0
LINE
  5
D20
  8
DATA
  6
CONTINUOUS
 62
     7
 10
-462.59975000000009
 20
203.13671000000039
 30
0.0
 11
-461.29975000000002
 21
203.13671000000039
 31
0.0
  0
LINE
  5
D21
  8
DATA
  6
CONTINUOUS
 62
     7
 10
-457.99975000000012
 20
245.2867100000004
 30
0.0
 11
-449.99975000000001
 21
245.2867100000004
 31
0.0
  0
LINE
  5
D22
  8
DATA
  6
CONTINUOUS
 62
     7
 10
-457.99975000000012
 20
245.2867100000004
 30
0.0
 11
-457.99975000000012
 21
239.41907609491551
 31
0.0
  0
ARC
  5
D23
  8
DATA
  6
CONTINUOUS
 62
     7
 10
-462.99974999999989
 20
239.41907609491551
 30
0.0
 40
4.9999999999999689
 50
351.25383773744392
 51
0.0
  0
LINE
  5
D24
  8
DATA
  6
CONTINUOUS
 62
     7
 10
-399.99975000000001
 20
171.7867100000004
 30
0.0
 11
-399.99975000000001
 21
245.2867100000004
 31
0.0
  0
LINE
  5
D25
  8
DATA
  6
CONTINUOUS
 62
     7
 10
-396.69974999999999
 20
205.9367100000002
 30
0.0
 11
-396.69974999999999
 21
176.08671000000041
 31
0.0
  0
ARC
  5
D26
  8
DATA
  6
CONTINUOUS
 62
     7
 10
-380.24975000000001
 20
178.53671000000051
 30
0.0
 40
12.75
 50
100.8997354540905
 51
180.0
  0
LINE
  5
D27
  8
DATA
  6
CONTINUOUS
 62
     7
 10
-360.49975000000001
 20
245.2867100000004
 30
0.0
 11
-360.49975000000001
 21
171.7867100000004
 31
0.0
  0
LINE
  5
D28
  8
DATA
  6
CONTINUOUS
 62
     7
 10
-363.79975000000002
 20
205.9367100000002
 30
0.0
 11
-363.79975000000002
 21
176.08671000000041
 31
0.0
  0
ARC
  5
D29
  8
DATA
  6
CONTINUOUS
 62
     7
 10
-380.24975000000001
 20
178.53671000000051
 30
0.0
 40
12.75
 50
0.0
 51
79.100264545908374
  0
LINE
  5
D2A
  8
DATA
  6
CONTINUOUS
 62
     7
 10
-360.49975000000001
 20
171.7867100000004
 30
0.0
 11
-399.99975000000001
 21
171.7867100000004
 31
0.0
  0
CIRCLE
  5
D2B
  8
DATA
  6
CONTINUOUS
 62
     7
 10
-380.24975000000001
 20
178.5367100000004
 30
0.0
 40
3.3999999999999759
  0
ARC
  5
D2C
  8
DATA
  6
CONTINUOUS
 62
     7
 10
-393.99975000000001
 20
176.08671000000041
 30
0.0
 40
1.0
 50
270.0
 51
0.0
  0
LINE
  5
D2D
  8
DATA
  6
CONTINUOUS
 62
     7
 10
-395.69974999999988
 20
175.08671000000021
 30
0.0
 11
-393.99975000000001
 21
175.08671000000021
 31
0.0
  0
ARC
  5
D2E
  8
DATA
  6
CONTINUOUS
 62
     7
 10
-395.69974999999988
 20
176.08671000000041
 30
0.0
 40
1.0
 50
180.0
 51
270.0
  0
LINE
  5
D2F
  8
DATA
  6
CONTINUOUS
 62
     7
 10
-392.99975000000018
 20
176.08671000000041
 30
0.0
 11
-392.99975000000018
 21
178.53671000000051
 31
0.0
  0
ARC
  5
D30
  8
DATA
  6
CONTINUOUS
 62
     7
 10
-364.79975000000002
 20
176.08671000000041
 30
0.0
 40
1.0
 50
270.0
 51
0.0
  0
LINE
  5
D31
  8
DATA
  6
CONTINUOUS
 62
     7
 10
-366.49975000000001
 20
175.08671000000061
 30
0.0
 11
-364.79975000000002
 21
175.08671000000061
 31
0.0
  0
ARC
  5
D32
  8
DATA
  6
CONTINUOUS
 62
     7
 10
-366.49975000000001
 20
176.08671000000041
 30
0.0
 40
1.0
 50
180.0
 51
270.0
  0
LINE
  5
D33
  8
DATA
  6
CONTINUOUS
 62
     7
 10
-367.49975000000012
 20
176.08671000000041
 30
0.0
 11
-367.49975000000012
 21
178.53671000000051
 31
0.0
  0
LINE
  5
D34
  8
DATA
  6
CONTINUOUS
 62
     7
 10
-399.99975000000001
 20
245.2867100000004
 30
0.0
 11
-360.49975000000001
 21
245.2867100000004
 31
0.0
  0
ARC
  5
D35
  8
DATA
  6
CONTINUOUS
 62
     7
 10
-377.6497500000001
 20
192.0386543044313
 30
0.0
 40
1.0
 50
180.0
 51
259.10026454590582
  0
CIRCLE
  5
D36
  8
DATA
  6
CONTINUOUS
 62
     7
 10
-380.24975000000001
 20
238.5367100000004
 30
0.0
 40
3.3999999999999759
  0
ARC
  5
D37
  8
DATA
  6
CONTINUOUS
 62
     7
 10
-377.6497500000001
 20
225.03476569556489
 30
0.0
 40
0.9999999999999223
 50
100.8997354540877
 51
180.0
  0
CIRCLE
  5
D38
  8
DATA
  6
CONTINUOUS
 62
     7
 10
-380.24975000000001
 20
208.5367100000004
 30
0.0
 40
8.2250000000000227
  0
ARC
  5
D39
  8
DATA
  6
CONTINUOUS
 62
     7
 10
-377.6497500000001
 20
220.7633203233878
 30
0.0
 40
1.0
 50
180.0
 51
257.9948271692424
  0
ARC
  5
D3A
  8
DATA
  6
CONTINUOUS
 62
     7
 10
-377.6497500000001
 20
196.31009967660981
 30
0.0
 40
1.0000000000000611
 50
102.00517283075121
 51
180.0
  0
LINE
  5
D3B
  8
DATA
  6
CONTINUOUS
 62
     7
 10
-383.0497500000003
 20
203.68696773880751
 30
0.0
 11
-377.44974999999999
 21
203.68696773880751
 31
0.0
  0
LINE
  5
D3C
  8
DATA
  6
CONTINUOUS
 62
     7
 10
-377.44974999999999
 20
213.38645226119311
 30
0.0
 11
-383.0497500000003
 21
213.38645226119311
 31
0.0
  0
CIRCLE
  5
D3D
  8
DATA
  6
CONTINUOUS
 62
     7
 10
-380.24975000000001
 20
208.5367100000004
 30
0.0
 40
3.100000000000021
  0
LINE
  5
D3E
  8
DATA
  6
CONTINUOUS
 62
     7
 10
-381.84974999999997
 20
196.31009967660961
 30
0.0
 11
-381.84974999999997
 21
192.0386543044321
 31
0.0
  0
LINE
  5
D3F
  8
DATA
  6
CONTINUOUS
 62
     7
 10
-378.64975000000032
 20
196.31009967660981
 30
0.0
 11
-378.64975000000032
 21
192.0386543044313
 31
0.0
  0
ARC
  5
D40
  8
DATA
  6
CONTINUOUS
 62
     7
 10
-382.84975000000031
 20
192.0386543044321
 30
0.0
 40
0.9999999999999442
 50
280.89973545409413
 51
0.0
  0
ARC
  5
D41
  8
DATA
  6
CONTINUOUS
 62
     7
 10
-380.24975000000001
 20
238.5367100000004
 30
0.0
 40
12.75
 50
180.0
 51
259.10026454591122
  0
ARC
  5
D42
  8
DATA
  6
CONTINUOUS
 62
     7
 10
-380.24975000000001
 20
208.5367100000004
 30
0.0
 40
11.499999999999901
 50
102.0051728307517
 51
167.99482716924581
  0
ARC
  5
D43
  8
DATA
  6
CONTINUOUS
 62
     7
 10
-380.24975000000001
 20
208.5367100000004
 30
0.0
 40
11.500000000000011
 50
192.0051728307528
 51
257.99482716924763
  0
LINE
  5
D44
  8
DATA
  6
CONTINUOUS
 62
     7
 10
-392.47636032339028
 20
206.9367100000004
 30
0.0
 11
-395.69974999999988
 21
206.9367100000004
 31
0.0
  0
LINE
  5
D45
  8
DATA
  6
CONTINUOUS
 62
     7
 10
-392.4763603233892
 20
210.13671000000039
 30
0.0
 11
-395.69974999999988
 21
210.13671000000039
 31
0.0
  0
ARC
  5
D46
  8
DATA
  6
CONTINUOUS
 62
     7
 10
-393.99975000000012
 20
240.9867100000007
 30
0.0
 40
1.0
 50
0.0
 51
90.0
  0
LINE
  5
D47
  8
DATA
  6
CONTINUOUS
 62
     7
 10
-396.69974999999999
 20
240.9867100000007
 30
0.0
 11
-396.69974999999999
 21
211.13671000000019
 31
0.0
  0
ARC
  5
D48
  8
DATA
  6
CONTINUOUS
 62
     7
 10
-395.69974999999988
 20
240.9867100000007
 30
0.0
 40
1.0
 50
90.0
 51
180.0
  0
LINE
  5
D49
  8
DATA
  6
CONTINUOUS
 62
     7
 10
-395.69974999999988
 20
241.98671000000039
 30
0.0
 11
-393.99975000000012
 21
241.98671000000039
 31
0.0
  0
ARC
  5
D4A
  8
DATA
  6
CONTINUOUS
 62
     7
 10
-395.69974999999988
 20
205.9367100000002
 30
0.0
 40
1.0
 50
90.0
 51
180.0
  0
ARC
  5
D4B
  8
DATA
  6
CONTINUOUS
 62
     7
 10
-395.69974999999988
 20
211.13671000000019
 30
0.0
 40
1.0
 50
180.0
 51
270.0
  0
LINE
  5
D4C
  8
DATA
  6
CONTINUOUS
 62
     7
 10
-392.99975000000018
 20
240.9867100000007
 30
0.0
 11
-392.99975000000018
 21
238.5367100000004
 31
0.0
  0
ARC
  5
D4D
  8
DATA
  6
CONTINUOUS
 62
     7
 10
-392.47636032339028
 20
205.9367100000004
 30
0.0
 40
1.0000000000000291
 50
12.005172830758299
 51
90.0
  0
ARC
  5
D4E
  8
DATA
  6
CONTINUOUS
 62
     7
 10
-392.4763603233892
 20
211.13671000000019
 30
0.0
 40
1.0
 50
270.0
 51
347.99482716924172
  0
LINE
  5
D4F
  8
DATA
  6
CONTINUOUS
 62
     7
 10
-381.84974999999997
 20
225.03476569556611
 30
0.0
 11
-381.84974999999997
 21
220.76332032339101
 31
0.0
  0
LINE
  5
D50
  8
DATA
  6
CONTINUOUS
 62
     7
 10
-378.64975000000032
 20
225.03476569556489
 30
0.0
 11
-378.64974999999993
 21
220.7633203233878
 31
0.0
  0
ARC
  5
D51
  8
DATA
  6
CONTINUOUS
 62
     7
 10
-382.84975000000031
 20
225.03476569556611
 30
0.0
 40
1.0
 50
0.0
 51
79.100264545912239
  0
LINE
  5
D52
  8
DATA
  6
CONTINUOUS
 62
     7
 10
-385.84974999999997
 20
208.5367100000004
 30
0.0
 11
-383.0497500000003
 21
203.68696773880751
 31
0.0
  0
LINE
  5
D53
  8
DATA
  6
CONTINUOUS
 62
     7
 10
-383.0497500000003
 20
213.38645226119311
 30
0.0
 11
-385.84974999999997
 21
208.5367100000004
 31
0.0
  0
ARC
  5
D54
  8
DATA
  6
CONTINUOUS
 62
     7
 10
-382.84974999999991
 20
220.76332032339101
 30
0.0
 40
1.0000000000000611
 50
282.00517283075112
 51
0.0
  0
ARC
  5
D55
  8
DATA
  6
CONTINUOUS
 62
     7
 10
-382.84975000000031
 20
196.31009967660981
 30
0.0
 40
1.0
 50
0.0
 51
77.99482716924868
  0
LINE
  5
D56
  8
DATA
  6
CONTINUOUS
 62
     7
 10
-363.79975000000002
 20
240.9867100000007
 30
0.0
 11
-363.79975000000002
 21
211.13671000000019
 31
0.0
  0
ARC
  5
D57
  8
DATA
  6
CONTINUOUS
 62
     7
 10
-380.24975000000001
 20
238.5367100000004
 30
0.0
 40
12.750000000000099
 50
280.89973545408742
 51
0.0
  0
ARC
  5
D58
  8
DATA
  6
CONTINUOUS
 62
     7
 10
-366.49975000000001
 20
240.9867100000007
 30
0.0
 40
1.0
 50
90.0
 51
180.0
  0
LINE
  5
D59
  8
DATA
  6
CONTINUOUS
 62
     7
 10
-367.49975000000012
 20
240.9867100000007
 30
0.0
 11
-367.49975000000012
 21
238.5367100000004
 31
0.0
  0
LINE
  5
D5A
  8
DATA
  6
CONTINUOUS
 62
     7
 10
-366.49975000000001
 20
241.98671000000039
 30
0.0
 11
-364.79975000000002
 21
241.98671000000039
 31
0.0
  0
ARC
  5
D5B
  8
DATA
  6
CONTINUOUS
 62
     7
 10
-364.79975000000002
 20
240.9867100000007
 30
0.0
 40
1.0
 50
0.0
 51
90.0
  0
ARC
  5
D5C
  8
DATA
  6
CONTINUOUS
 62
     7
 10
-380.24975000000001
 20
208.5367100000004
 30
0.0
 40
11.500000000000011
 50
12.005172830751681
 51
77.994827169244843
  0
ARC
  5
D5D
  8
DATA
  6
CONTINUOUS
 62
     7
 10
-380.24975000000001
 20
208.5367100000004
 30
0.0
 40
11.499999999999931
 50
282.00517283075231
 51
347.994827169247
  0
LINE
  5
D5E
  8
DATA
  6
CONTINUOUS
 62
     7
 10
-374.64975000000032
 20
208.5367100000004
 30
0.0
 11
-377.44974999999999
 21
213.38645226119311
 31
0.0
  0
LINE
  5
D5F
  8
DATA
  6
CONTINUOUS
 62
     7
 10
-377.44974999999999
 20
203.68696773880751
 30
0.0
 11
-374.64975000000032
 21
208.5367100000004
 31
0.0
  0
ARC
  5
D60
  8
DATA
  6
CONTINUOUS
 62
     7
 10
-364.79975000000002
 20
211.13671000000019
 30
0.0
 40
1.0
 50
270.0
 51
0.0
  0
LINE
  5
D61
  8
DATA
  6
CONTINUOUS
 62
     7
 10
-368.02313967660882
 20
210.13671000000039
 30
0.0
 11
-364.79975000000002
 21
210.13671000000039
 31
0.0
  0
ARC
  5
D62
  8
DATA
  6
CONTINUOUS
 62
     7
 10
-368.02313967660882
 20
211.13671000000019
 30
0.0
 40
0.9999999999999264
 50
192.0051728307462
 51
270.0
  0
ARC
  5
D63
  8
DATA
  6
CONTINUOUS
 62
     7
 10
-368.0231396766103
 20
205.9367100000004
 30
0.0
 40
1.0
 50
90.0
 51
167.99482716924101
  0
LINE
  5
D64
  8
DATA
  6
CONTINUOUS
 62
     7
 10
-368.02313967661001
 20
206.9367100000004
 30
0.0
 11
-364.79975000000002
 21
206.9367100000004
 31
0.0
  0
ARC
  5
D65
  8
DATA
  6
CONTINUOUS
 62
     7
 10
-364.79975000000002
 20
205.9367100000002
 30
0.0
 40
1.0
 50
0.0
 51
90.0
  0
TEXT
  5
D66
  8
DATA
 62
     7
 10
599.99649999999951
 20
-976.13071187499963
 30
0.0
 40
17.187457031249998
  1
2WAYスピーカ
 41
0.8
 11
599.99649999999951
 21
-958.94325484374986
 31
0.0
 73
     3
  0
TEXT
  5
D67
  8
DATA
 62
     7
 10
599.99649999999951
 20
-1007.38063375
 30
0.0
 40
25.781185546875001
  1
CONTROL 23 / 23-WH
 41
0.8
 11
599.99649999999951
 21
-981.59944820312501
 31
0.0
 73
     3
  0
LINE
  5
D68
  8
DATA
  6
CONTINUOUS
 62
     7
 10
575.00025000000005
 20
-278.21328999999992
 30
0.0
 11
925.00025000000005
 21
-278.21328999999992
 31
0.0
  0
TEXT
  5
D69
  8
DATA
 62
     7
 10
595.27488807136251
 20
-265.71328999999992
 30
0.0
 40
24.921875
  1
コネクターパネル拡大図
 41
0.8
 11
595.27488807136251
 21
-240.7914149999998
 31
0.0
 73
     3
  0
LINE
  5
D6A
  8
DATA
  6
CONTINUOUS
 62
     7
 10
200.0
 20
-698.73000000000002
 30
0.0
 11
200.0
 21
-510.51600000000002
 31
0.0
  0
LINE
  5
D6B
  8
DATA
  6
CONTINUOUS
 62
     7
 10
233.2913067969009
 20
-690.19835445355955
 30
0.0
 11
233.2913067969009
 21
-519.04764554644032
 31
0.0
  0
LINE
  5
D6C
  8
DATA
  6
CONTINUOUS
 62
     7
 10
241.84999999999999
 20
-574.69835445355955
 30
0.0
 11
241.84999999999999
 21
-526.19835445356
 31
0.0
  0
LINE
  5
D6D
  8
DATA
  6
CONTINUOUS
 62
     7
 10
240.84999999999999
 20
-574.69835445355932
 30
0.0
 11
240.84999999999999
 21
-526.19835445355966
 31
0.0
  0
CIRCLE
  5
D6E
  8
DATA
  6
CONTINUOUS
 62
     7
 10
247.85000000000039
 20
-528.44835445355966
 30
0.0
 40
2.75
  0
LINE
  5
D6F
  8
DATA
  6
CONTINUOUS
 62
     7
 10
247.85000000000039
 20
-530.44835445355977
 30
0.0
 11
247.85000000000039
 21
-526.44835445355977
 31
0.0
  0
LINE
  5
D70
  8
DATA
  6
CONTINUOUS
 62
     7
 10
339.69999999999982
 20
-698.73000000000002
 30
0.0
 11
339.69999999999982
 21
-510.51600000000002
 31
0.0
  0
LINE
  5
D71
  8
DATA
  6
CONTINUOUS
 62
     7
 10
306.40869320309912
 20
-690.19835445355955
 30
0.0
 11
306.40869320309957
 21
-519.04764554644032
 31
0.0
  0
LINE
  5
D72
  8
DATA
  6
CONTINUOUS
 62
     7
 10
297.8499999999998
 20
-574.69835445355932
 30
0.0
 11
297.8499999999998
 21
-526.19835445355966
 31
0.0
  0
LINE
  5
D73
  8
DATA
  6
CONTINUOUS
 62
     7
 10
298.85000000000008
 20
-574.69835445355955
 30
0.0
 11
298.84999999999991
 21
-526.19835445355966
 31
0.0
  0
CIRCLE
  5
D74
  8
DATA
  6
CONTINUOUS
 62
     7
 10
291.85000000000002
 20
-528.44835445355966
 30
0.0
 40
2.75
  0
LINE
  5
D75
  8
DATA
  6
CONTINUOUS
 62
     7
 10
291.85000000000002
 20
-530.44835445355977
 30
0.0
 11
291.85000000000002
 21
-526.44835445355977
 31
0.0
  0
LINE
  5
D76
  8
DATA
  6
CONTINUOUS
 62
     7
 10
201.27000000000001
 20
-700.0
 30
0.0
 11
338.4300000000004
 21
-700.0
 31
0.0
  0
LINE
  5
D77
  8
DATA
  6
CONTINUOUS
 62
     7
 10
233.2913067969009
 20
-690.19835445355955
 30
0.0
 11
306.40869320309957
 21
-690.19835445355955
 31
0.0
  0
LINE
  5
D78
  8
DATA
  6
CONTINUOUS
 62
     7
 10
200.37197438789309
 20
-699.62802561210685
 30
0.0
 11
233.2913067969009
 21
-690.19835445355955
 31
0.0
  0
ARC
  5
D79
  8
DATA
  6
CONTINUOUS
 62
     7
 10
201.27000000000001
 20
-698.73000000000002
 30
0.0
 40
1.26999999999998
 50
180.0
 51
270.0
  0
LINE
  5
D7A
  8
DATA
  6
CONTINUOUS
 62
     7
 10
245.59999999999999
 20
-584.19835445355932
 30
0.0
 11
294.10000000000002
 21
-584.19835445355955
 31
0.0
  0
LINE
  5
D7B
  8
DATA
  6
CONTINUOUS
 62
     7
 10
245.59999999999999
 20
-663.69835445355955
 30
0.0
 11
294.10000000000002
 21
-663.69835445355955
 31
0.0
  0
LINE
  5
D7C
  8
DATA
  6
CONTINUOUS
 62
     7
 10
245.84999999999999
 20
-578.69835445355955
 30
0.0
 11
293.84999999999991
 21
-578.69835445355955
 31
0.0
  0
LINE
  5
D7D
  8
DATA
  6
CONTINUOUS
 62
     7
 10
245.84999999999999
 20
-579.69835445355932
 30
0.0
 11
293.84999999999991
 21
-579.69835445355932
 31
0.0
  0
LINE
  5
D7E
  8
DATA
  6
CONTINUOUS
 62
     7
 10
288.60000000000008
 20
-566.44835445355955
 30
0.0
 11
251.10000000000011
 21
-566.44835445355955
 31
0.0
  0
LINE
  5
D7F
  8
DATA
  6
CONTINUOUS
 62
     7
 10
251.10000000000011
 20
-560.44835445355955
 30
0.0
 11
288.60000000000008
 21
-560.44835445355955
 31
0.0
  0
LINE
  5
D80
  8
DATA
  6
CONTINUOUS
 62
     7
 10
254.85000000000039
 20
-645.19835445355955
 30
0.0
 11
284.85000000000042
 21
-645.19835445355955
 31
0.0
  0
LINE
  5
D81
  8
DATA
  6
CONTINUOUS
 62
     7
 10
254.85000000000039
 20
-651.69835445355955
 30
0.0
 11
284.85000000000042
 21
-651.69835445355955
 31
0.0
  0
LINE
  5
D82
  8
DATA
  6
CONTINUOUS
 62
     7
 10
273.59999999999991
 20
-556.94835445355966
 30
0.0
 11
285.10000000000019
 21
-556.94835445355932
 31
0.0
  0
LINE
  5
D83
  8
DATA
  6
CONTINUOUS
 62
     7
 10
273.59999999999991
 20
-555.44835445355955
 30
0.0
 11
285.10000000000019
 21
-555.4483544535592
 31
0.0
  0
LINE
  5
D84
  8
DATA
  6
CONTINUOUS
 62
     7
 10
273.59999999999991
 20
-553.44835445355955
 30
0.0
 11
285.10000000000019
 21
-553.44835445355955
 31
0.0
  0
TEXT
  5
D85
  8
DATA
 62
     7
 10
262.811027414943
 20
-685.3983544535597
 30
0.0
 40
1.71875
  1
PROFESSIONAL
 41
0.8
 11
262.811027414943
 21
-683.6796044535597
 31
0.0
 73
     3
  0
TEXT
  5
D86
  8
DATA
 62
     7
 10
262.30000000000013
 20
-668.49835445355961
 30
0.0
 40
1.71875
  1
CONTROL
 41
0.8
 11
262.30000000000013
 21
-666.77960445355961
 31
0.0
 73
     3
  0
TEXT
  5
D87
  8
DATA
 62
     7
 10
275.24332230946521
 20
-668.49835445355939
 30
0.0
 40
1.71875
  1
23
 41
0.8
 11
275.24332230946521
 21
-666.77960445355927
 31
0.0
 73
     3
  0
LINE
  5
D88
  8
DATA
  6
CONTINUOUS
 62
     7
 10
251.10000000000011
 20
-534.44835445355977
 30
0.0
 11
288.60000000000008
 21
-534.44835445355977
 31
0.0
  0
LINE
  5
D89
  8
DATA
  6
CONTINUOUS
 62
     7
 10
251.10000000000011
 20
-542.44835445355966
 30
0.0
 11
288.60000000000008
 21
-542.44835445355966
 31
0.0
  0
LINE
  5
D8A
  8
DATA
  6
CONTINUOUS
 62
     7
 10
271.60000000000042
 20
-534.94835445355977
 30
0.0
 11
287.10000000000002
 21
-534.94835445355977
 31
0.0
  0
LINE
  5
D8B
  8
DATA
  6
CONTINUOUS
 62
     7
 10
287.10000000000002
 20
-541.94835445355966
 30
0.0
 11
271.60000000000042
 21
-541.94835445355966
 31
0.0
  0
LINE
  5
D8C
  8
DATA
  6
CONTINUOUS
 62
     7
 10
251.10000000000011
 20
-566.44835445355955
 30
0.0
 11
251.10000000000011
 21
-534.44835445355977
 31
0.0
  0
LINE
  5
D8D
  8
DATA
  6
CONTINUOUS
 62
     7
 10
266.10000000000042
 20
-560.44835445355955
 30
0.0
 11
266.10000000000042
 21
-542.44835445355966
 31
0.0
  0
LINE
  5
D8E
  8
DATA
  6
CONTINUOUS
 62
     7
 10
273.59999999999991
 20
-542.44835445355966
 30
0.0
 11
273.60000000000042
 21
-560.44835445355955
 31
0.0
  0
LINE
  5
D8F
  8
DATA
  6
CONTINUOUS
 62
     7
 10
254.60000000000039
 20
-542.44835445355966
 30
0.0
 11
254.60000000000039
 21
-560.44835445355955
 31
0.0
  0
LINE
  5
D90
  8
DATA
  6
CONTINUOUS
 62
     7
 10
261.60000000000002
 20
-686.19835445355955
 30
0.0
 11
278.10000000000042
 21
-686.19835445355955
 31
0.0
  0
LINE
  5
D91
  8
DATA
  6
CONTINUOUS
 62
     7
 10
261.60000000000002
 20
-683.19835445355955
 30
0.0
 11
278.10000000000042
 21
-683.19835445355932
 31
0.0
  0
LINE
  5
D92
  8
DATA
  6
CONTINUOUS
 62
     7
 10
261.60000000000002
 20
-669.19835445355955
 30
0.0
 11
278.10000000000042
 21
-669.19835445355955
 31
0.0
  0
LINE
  5
D93
  8
DATA
  6
CONTINUOUS
 62
     7
 10
261.60000000000002
 20
-666.19835445355932
 30
0.0
 11
278.10000000000042
 21
-666.19835445355932
 31
0.0
  0
LINE
  5
D94
  8
DATA
  6
CONTINUOUS
 62
     7
 10
261.60000000000002
 20
-686.19835445355955
 30
0.0
 11
261.60000000000002
 21
-666.19835445355932
 31
0.0
  0
LINE
  5
D95
  8
DATA
  6
CONTINUOUS
 62
     7
 10
278.10000000000042
 20
-686.19835445355955
 30
0.0
 11
278.10000000000042
 21
-666.19835445355932
 31
0.0
  0
CIRCLE
  5
D96
  8
DATA
  6
CONTINUOUS
 62
     7
 10
269.85000000000042
 20
-619.69835445355955
 30
0.0
 40
13.0
  0
CIRCLE
  5
D97
  8
DATA
  6
CONTINUOUS
 62
     7
 10
269.85000000000042
 20
-619.69835445355955
 30
0.0
 40
11.25
  0
LINE
  5
D98
  8
DATA
  6
CONTINUOUS
 62
     7
 10
254.85000000000039
 20
-651.69835445355955
 30
0.0
 11
254.85000000000039
 21
-645.19835445355955
 31
0.0
  0
ARC
  5
D99
  8
DATA
  6
CONTINUOUS
 62
     7
 10
269.85000000000042
 20
-648.44835445355966
 30
0.0
 40
9.7499999999999591
 50
199.47122063449081
 51
340.52877936550982
  0
ARC
  5
D9A
  8
DATA
  6
CONTINUOUS
 62
     7
 10
269.85000000000042
 20
-648.44835445355966
 30
0.0
 40
9.7499999999999591
 50
19.471220634490759
 51
160.52877936550911
  0
CIRCLE
  5
D9B
  8
DATA
  6
CONTINUOUS
 62
     7
 10
246.59999999999999
 20
-619.69835445355955
 30
0.0
 40
3.0
  0
ARC
  5
D9C
  8
DATA
  6
CONTINUOUS
 62
     7
 10
245.59999999999999
 20
-589.19835445355955
 30
0.0
 40
5.0
 50
90.0
 51
180.0
  0
LINE
  5
D9D
  8
DATA
  6
CONTINUOUS
 62
     7
 10
240.60000000000039
 20
-658.69835445355966
 30
0.0
 11
240.60000000000039
 21
-589.19835445355955
 31
0.0
  0
ARC
  5
D9E
  8
DATA
  6
CONTINUOUS
 62
     7
 10
245.59999999999999
 20
-658.69835445355966
 30
0.0
 40
5.0
 50
180.0
 51
270.0
  0
ARC
  5
D9F
  8
DATA
  6
CONTINUOUS
 62
     7
 10
245.84999999999999
 20
-574.69835445355955
 30
0.0
 40
4.0
 50
180.0
 51
270.0
  0
ARC
  5
DA0
  8
DATA
  6
CONTINUOUS
 62
     7
 10
245.84999999999999
 20
-574.69835445355932
 30
0.0
 40
5.0
 50
180.0
 51
270.0
  0
CIRCLE
  5
DA1
  8
DATA
  6
CONTINUOUS
 62
     7
 10
247.85000000000039
 20
-572.44835445355955
 30
0.0
 40
2.75
  0
LINE
  5
DA2
  8
DATA
  6
CONTINUOUS
 62
     7
 10
245.84999999999999
 20
-572.44835445355955
 30
0.0
 11
249.84999999999999
 21
-572.44835445355955
 31
0.0
  0
LINE
  5
DA3
  8
DATA
  6
CONTINUOUS
 62
     7
 10
247.85000000000039
 20
-574.44835445355955
 30
0.0
 11
247.85000000000039
 21
-570.44835445355955
 31
0.0
  0
LINE
  5
DA4
  8
DATA
  6
CONTINUOUS
 62
     7
 10
254.60000000000039
 20
-556.94835445355966
 30
0.0
 11
266.10000000000042
 21
-556.94835445355932
 31
0.0
  0
LINE
  5
DA5
  8
DATA
  6
CONTINUOUS
 62
     7
 10
254.60000000000039
 20
-555.44835445355955
 30
0.0
 11
266.10000000000042
 21
-555.4483544535592
 31
0.0
  0
LINE
  5
DA6
  8
DATA
  6
CONTINUOUS
 62
     7
 10
254.60000000000039
 20
-553.44835445355955
 30
0.0
 11
266.10000000000042
 21
-553.44835445355955
 31
0.0
  0
TEXT
  5
DA7
  8
DATA
 62
     7
 10
261.98613202072943
 20
-565.44835445355966
 30
0.0
 40
5.15625
  1
INPUT
 41
0.8
 11
261.98613202072943
 21
-560.29210445355966
 31
0.0
 73
     3
  0
CIRCLE
  5
DA8
  8
DATA
  6
CONTINUOUS
 62
     7
 10
260.35000000000042
 20
-572.44835445355955
 30
0.0
 40
2.5
  0
LINE
  5
DA9
  8
DATA
  6
CONTINUOUS
 62
     7
 10
258.60000000000042
 20
-572.44835445355955
 30
0.0
 11
262.10000000000042
 21
-572.44835445355955
 31
0.0
  0
CIRCLE
  5
DAA
  8
DATA
  6
CONTINUOUS
 62
     7
 10
279.3499999999998
 20
-572.44835445355955
 30
0.0
 40
2.5
  0
LINE
  5
DAB
  8
DATA
  6
CONTINUOUS
 62
     7
 10
277.59999999999991
 20
-572.44835445355955
 30
0.0
 11
281.10000000000042
 21
-572.44835445355955
 31
0.0
  0
LINE
  5
DAC
  8
DATA
  6
CONTINUOUS
 62
     7
 10
279.3499999999998
 20
-574.1983544535592
 30
0.0
 11
279.3499999999998
 21
-570.69835445355932
 31
0.0
  0
LINE
  5
DAD
  8
DATA
  6
CONTINUOUS
 62
     7
 10
262.35000000000002
 20
-620.69835445355955
 30
0.0
 11
262.35000000000002
 21
-618.69835445355955
 31
0.0
  0
LINE
  5
DAE
  8
DATA
  6
CONTINUOUS
 62
     7
 10
262.35000000000002
 20
-618.69835445355955
 30
0.0
 11
277.35000000000002
 21
-618.69835445355955
 31
0.0
  0
LINE
  5
DAF
  8
DATA
  6
CONTINUOUS
 62
     7
 10
277.35000000000002
 20
-618.69835445355955
 30
0.0
 11
277.35000000000002
 21
-620.69835445355955
 31
0.0
  0
LINE
  5
DB0
  8
DATA
  6
CONTINUOUS
 62
     7
 10
277.35000000000002
 20
-620.69835445355955
 30
0.0
 11
262.35000000000002
 21
-620.69835445355955
 31
0.0
  0
LINE
  5
DB1
  8
DATA
  6
CONTINUOUS
 62
     7
 10
245.84999999999999
 20
-528.44835445355966
 30
0.0
 11
249.84999999999999
 21
-528.44835445355966
 31
0.0
  0
LINE
  5
DB2
  8
DATA
  6
CONTINUOUS
 62
     7
 10
258.35000000000002
 20
-540.44835445355966
 30
0.0
 11
258.35000000000002
 21
-536.44835445355966
 31
0.0
  0
LINE
  5
DB3
  8
DATA
  6
CONTINUOUS
 62
     7
 10
258.35000000000002
 20
-536.44835445355966
 30
0.0
 11
262.35000000000002
 21
-536.44835445355966
 31
0.0
  0
LINE
  5
DB4
  8
DATA
  6
CONTINUOUS
 62
     7
 10
262.35000000000002
 20
-536.44835445355966
 30
0.0
 11
262.35000000000002
 21
-540.44835445355966
 31
0.0
  0
LINE
  5
DB5
  8
DATA
  6
CONTINUOUS
 62
     7
 10
262.35000000000002
 20
-540.44835445355966
 30
0.0
 11
258.35000000000002
 21
-540.44835445355966
 31
0.0
  0
LINE
  5
DB6
  8
DATA
  6
CONTINUOUS
 62
     7
 10
252.59999999999999
 20
-541.94835445355966
 30
0.0
 11
252.59999999999999
 21
-534.94835445355977
 31
0.0
  0
LINE
  5
DB7
  8
DATA
  6
CONTINUOUS
 62
     7
 10
252.59999999999999
 20
-534.94835445355977
 30
0.0
 11
268.09999999999991
 21
-534.94835445355977
 31
0.0
  0
LINE
  5
DB8
  8
DATA
  6
CONTINUOUS
 62
     7
 10
268.09999999999991
 20
-534.94835445355977
 30
0.0
 11
268.09999999999991
 21
-541.94835445355966
 31
0.0
  0
LINE
  5
DB9
  8
DATA
  6
CONTINUOUS
 62
     7
 10
268.09999999999991
 20
-541.94835445355966
 30
0.0
 11
252.59999999999999
 21
-541.94835445355966
 31
0.0
  0
LINE
  5
DBA
  8
DATA
  6
CONTINUOUS
 62
     7
 10
277.35000000000002
 20
-540.44835445355966
 30
0.0
 11
277.35000000000002
 21
-536.44835445355966
 31
0.0
  0
LINE
  5
DBB
  8
DATA
  6
CONTINUOUS
 62
     7
 10
277.35000000000002
 20
-536.44835445355966
 30
0.0
 11
281.35000000000002
 21
-536.44835445355966
 31
0.0
  0
LINE
  5
DBC
  8
DATA
  6
CONTINUOUS
 62
     7
 10
281.35000000000002
 20
-536.44835445355966
 30
0.0
 11
281.35000000000002
 21
-540.44835445355966
 31
0.0
  0
LINE
  5
DBD
  8
DATA
  6
CONTINUOUS
 62
     7
 10
281.35000000000002
 20
-540.44835445355966
 30
0.0
 11
277.35000000000002
 21
-540.44835445355966
 31
0.0
  0
LINE
  5
DBE
  8
DATA
  6
CONTINUOUS
 62
     7
 10
271.60000000000042
 20
-541.94835445355966
 30
0.0
 11
271.60000000000042
 21
-534.94835445355977
 31
0.0
  0
LINE
  5
DBF
  8
DATA
  6
CONTINUOUS
 62
     7
 10
339.32802561210713
 20
-699.62802561210685
 30
0.0
 11
306.40869320309957
 21
-690.19835445355955
 31
0.0
  0
ARC
  5
DC0
  8
DATA
  6
CONTINUOUS
 62
     7
 10
338.4300000000004
 20
-698.73000000000002
 30
0.0
 40
1.26999999999998
 50
270.0
 51
0.0
  0
LINE
  5
DC1
  8
DATA
  6
CONTINUOUS
 62
     7
 10
285.09999999999991
 20
-560.44835445355955
 30
0.0
 11
285.09999999999991
 21
-542.44835445355966
 31
0.0
  0
LINE
  5
DC2
  8
DATA
  6
CONTINUOUS
 62
     7
 10
288.60000000000008
 20
-534.44835445355977
 30
0.0
 11
288.60000000000008
 21
-566.44835445355955
 31
0.0
  0
LINE
  5
DC3
  8
DATA
  6
CONTINUOUS
 62
     7
 10
284.84999999999991
 20
-651.69835445355955
 30
0.0
 11
284.85000000000042
 21
-645.19835445355955
 31
0.0
  0
CIRCLE
  5
DC4
  8
DATA
  6
CONTINUOUS
 62
     7
 10
293.10000000000031
 20
-619.69835445355955
 30
0.0
 40
3.0
  0
ARC
  5
DC5
  8
DATA
  6
CONTINUOUS
 62
     7
 10
294.10000000000002
 20
-589.19835445355955
 30
0.0
 40
5.0
 50
0.0
 51
90.0
  0
LINE
  5
DC6
  8
DATA
  6
CONTINUOUS
 62
     7
 10
299.10000000000008
 20
-658.69835445355932
 30
0.0
 11
299.10000000000008
 21
-589.19835445355955
 31
0.0
  0
ARC
  5
DC7
  8
DATA
  6
CONTINUOUS
 62
     7
 10
294.10000000000002
 20
-658.69835445355932
 30
0.0
 40
5.0
 50
270.0
 51
0.0
  0
ARC
  5
DC8
  8
DATA
  6
CONTINUOUS
 62
     7
 10
293.84999999999991
 20
-574.69835445355932
 30
0.0
 40
4.0
 50
270.0
 51
0.0
  0
ARC
  5
DC9
  8
DATA
  6
CONTINUOUS
 62
     7
 10
293.84999999999991
 20
-574.69835445355955
 30
0.0
 40
5.0
 50
270.0
 51
0.0
  0
CIRCLE
  5
DCA
  8
DATA
  6
CONTINUOUS
 62
     7
 10
291.85000000000002
 20
-572.44835445355955
 30
0.0
 40
2.75
  0
LINE
  5
DCB
  8
DATA
  6
CONTINUOUS
 62
     7
 10
289.85000000000019
 20
-572.44835445355955
 30
0.0
 11
293.85000000000019
 21
-572.44835445355955
 31
0.0
  0
LINE
  5
DCC
  8
DATA
  6
CONTINUOUS
 62
     7
 10
291.85000000000002
 20
-574.44835445355955
 30
0.0
 11
291.85000000000002
 21
-570.44835445355955
 31
0.0
  0
LINE
  5
DCD
  8
DATA
  6
CONTINUOUS
 62
     7
 10
287.10000000000002
 20
-534.94835445355977
 30
0.0
 11
287.10000000000002
 21
-541.94835445355966
 31
0.0
  0
LINE
  5
DCE
  8
DATA
  6
CONTINUOUS
 62
     7
 10
289.85000000000019
 20
-528.44835445355966
 30
0.0
 11
293.85000000000019
 21
-528.44835445355966
 31
0.0
  0
LINE
  5
DCF
  8
DATA
  6
CONTINUOUS
 62
     7
 10
201.27000000000001
 20
-509.24599999999998
 30
0.0
 11
338.4300000000004
 21
-509.24599999999998
 31
0.0
  0
LINE
  5
DD0
  8
DATA
  6
CONTINUOUS
 62
     7
 10
233.2913067969009
 20
-519.04764554644032
 30
0.0
 11
306.40869320309957
 21
-519.04764554644032
 31
0.0
  0
ARC
  5
DD1
  8
DATA
  6
CONTINUOUS
 62
     7
 10
201.27000000000001
 20
-510.51600000000002
 30
0.0
 40
1.26999999999998
 50
90.0
 51
180.0
  0
LINE
  5
DD2
  8
DATA
  6
CONTINUOUS
 62
     7
 10
200.37197438789309
 20
-509.61797438789279
 30
0.0
 11
233.2913067969009
 21
-519.04764554644032
 31
0.0
  0
LINE
  5
DD3
  8
DATA
  6
CONTINUOUS
 62
     7
 10
245.84999999999999
 20
-522.19835445356
 30
0.0
 11
293.84999999999991
 21
-522.19835445355966
 31
0.0
  0
LINE
  5
DD4
  8
DATA
  6
CONTINUOUS
 62
     7
 10
245.84999999999999
 20
-521.19835445355966
 30
0.0
 11
293.84999999999991
 21
-521.19835445355966
 31
0.0
  0
ARC
  5
DD5
  8
DATA
  6
CONTINUOUS
 62
     7
 10
245.84999999999999
 20
-526.19835445356
 30
0.0
 40
4.0
 50
90.0
 51
180.0
  0
ARC
  5
DD6
  8
DATA
  6
CONTINUOUS
 62
     7
 10
245.84999999999999
 20
-526.19835445355966
 30
0.0
 40
5.0
 50
90.0
 51
180.0
  0
LINE
  5
DD7
  8
DATA
  6
CONTINUOUS
 62
     7
 10
339.32802561210713
 20
-509.61797438789279
 30
0.0
 11
306.40869320309957
 21
-519.04764554644032
 31
0.0
  0
ARC
  5
DD8
  8
DATA
  6
CONTINUOUS
 62
     7
 10
293.84999999999991
 20
-526.19835445355966
 30
0.0
 40
4.0
 50
0.0
 51
90.0
  0
ARC
  5
DD9
  8
DATA
  6
CONTINUOUS
 62
     7
 10
293.84999999999991
 20
-526.19835445355966
 30
0.0
 40
5.0
 50
0.0
 51
90.0
  0
ARC
  5
DDA
  8
DATA
  6
CONTINUOUS
 62
     7
 10
338.4300000000004
 20
-510.51600000000002
 30
0.0
 40
1.26999999999998
 50
0.0
 51
90.0
  0
ARC
  5
DDB
  8
DATA
  6
CONTINUOUS
 62
     7
 10
870.00025000000051
 20
-590.71328999999844
 30
0.0
 40
20.0
 50
270.0
 51
0.0
  0
ARC
  5
DDC
  8
DATA
  6
CONTINUOUS
 62
     7
 10
630.00025000000051
 20
-590.71328999999957
 30
0.0
 40
20.0
 50
180.0
 51
270.0
  0
TEXT
  5
DDD
  8
DATA
 62
     7
 10
624.99643750000041
 20
-946.96411812500003
 30
0.0
 40
25.781185546875001
  1
JBL
 41
0.8
 11
624.99643750000041
 21
-921.18293257812502
 31
0.0
 73
     3
  0
LINE
  5
DDE
  8
DATA
  6
CONTINUOUS
 62
     7
 10
702.50025019000032
 20
-619.8799554999996
 30
0.0
 11
702.50025019000032
 21
-661.54662199999962
 31
0.0
  0
LINE
  5
DDF
  8
DATA
  6
CONTINUOUS
 62
     7
 10
797.50024981000104
 20
-619.8799554999996
 30
0.0
 11
797.50024981000104
 21
-661.54662199999962
 31
0.0
  0
TEXT
  5
DE0
  8
DATA
 62
     7
 10
676.49319566718214
 20
-703.21328849999963
 30
0.0
 40
26.855468642578121
  1
BLK
 41
0.8
 11
676.49319566718214
 21
-676.35781985742153
 31
0.0
 73
     3
  0
TEXT
  5
DE1
  8
DATA
 62
     7
 10
769.63554853555274
 20
-703.21328849999963
 30
0.0
 40
26.855468642578121
  1
RED
 41
0.8
 11
769.63554853555274
 21
-676.35781985742153
 31
0.0
 73
     3
  0
LINE
  5
DE2
  8
DATA
  6
CONTINUOUS
 62
     7
 10
698.33375020666676
 20
-644.87995539999963
 30
0.0
 11
702.50025019000032
 21
-619.8799554999996
 31
0.0
  0
LINE
  5
DE3
  8
DATA
  6
CONTINUOUS
 62
     7
 10
706.66675017333455
 20
-644.87995539999963
 30
0.0
 11
702.50025019000032
 21
-619.8799554999996
 31
0.0
  0
LINE
  5
DE4
  8
DATA
  6
CONTINUOUS
 62
     7
 10
793.33374982666737
 20
-644.87995539999963
 30
0.0
 11
797.50024981000104
 21
-619.8799554999996
 31
0.0
  0
LINE
  5
DE5
  8
DATA
  6
CONTINUOUS
 62
     7
 10
801.66674979333527
 20
-644.87995539999963
 30
0.0
 11
797.50024981000104
 21
-619.8799554999996
 31
0.0
  0
LINE
  5
DE6
  8
DATA
  6
CONTINUOUS
 62
     7
 10
630.00025000000051
 20
-610.71328999999901
 30
0.0
 11
870.00025000000051
 21
-610.71328999999901
 31
0.0
  0
CIRCLE
  5
DE7
  8
DATA
  6
CONTINUOUS
 62
     7
 10
860.00025000000051
 20
-579.46328999999901
 30
0.0
 40
13.75
  0
ARC
  5
DE8
  8
DATA
  6
CONTINUOUS
 62
     7
 10
870.00025000000051
 20
-348.21328999999957
 30
0.0
 40
20.0
 50
0.0
 51
90.0
  0
CIRCLE
  5
DE9
  8
DATA
  6
CONTINUOUS
 62
     7
 10
860.00025000000051
 20
-359.46329000000009
 30
0.0
 40
13.75
  0
LINE
  5
DEA
  8
DATA
  6
CONTINUOUS
 62
     7
 10
610.00025000000016
 20
-590.71328999999957
 30
0.0
 11
610.00025000000016
 21
-348.2132900000006
 31
0.0
  0
CIRCLE
  5
DEB
  8
DATA
  6
CONTINUOUS
 62
     7
 10
640.00025000000096
 20
-579.46328999999901
 30
0.0
 40
13.75
  0
LINE
  5
DEC
  8
DATA
  6
CONTINUOUS
 62
     7
 10
630.00025000000051
 20
-579.46328999999901
 30
0.0
 11
650.00025000000005
 21
-579.46328999999901
 31
0.0
  0
LINE
  5
DED
  8
DATA
  6
CONTINUOUS
 62
     7
 10
640.00025000000096
 20
-589.46328999999866
 30
0.0
 11
640.00025000000096
 21
-569.46328999999935
 31
0.0
  0
CIRCLE
  5
DEE
  8
DATA
  6
CONTINUOUS
 62
     7
 10
702.50025000000016
 20
-579.46328999999901
 30
0.0
 40
12.5
  0
LINE
  5
DEF
  8
DATA
  6
CONTINUOUS
 62
     7
 10
693.75025000000005
 20
-579.46328999999901
 30
0.0
 11
711.25024999999926
 21
-579.46328999999901
 31
0.0
  0
CIRCLE
  5
DF0
  8
DATA
  6
CONTINUOUS
 62
     7
 10
797.50025000000107
 20
-579.46328999999901
 30
0.0
 40
12.5
  0
LINE
  5
DF1
  8
DATA
  6
CONTINUOUS
 62
     7
 10
788.75025000000051
 20
-579.46328999999901
 30
0.0
 11
806.25025000000005
 21
-579.46328999999901
 31
0.0
  0
LINE
  5
DF2
  8
DATA
  6
CONTINUOUS
 62
     7
 10
797.50025000000107
 20
-588.21328999999821
 30
0.0
 11
797.50025000000107
 21
-570.71328999999878
 31
0.0
  0
LINE
  5
DF3
  8
DATA
  6
CONTINUOUS
 62
     7
 10
850.00025000000005
 20
-579.46328999999901
 30
0.0
 11
870.00025000000051
 21
-579.46328999999901
 31
0.0
  0
LINE
  5
DF4
  8
DATA
  6
CONTINUOUS
 62
     7
 10
860.00025000000051
 20
-589.46328999999866
 30
0.0
 11
860.00025000000051
 21
-569.46328999999935
 31
0.0
  0
LINE
  5
DF5
  8
DATA
  6
CONTINUOUS
 62
     7
 10
630.00025000000051
 20
-328.21329000000009
 30
0.0
 11
870.00025000000051
 21
-328.21328999999918
 31
0.0
  0
LINE
  5
DF6
  8
DATA
  6
CONTINUOUS
 62
     7
 10
843.75024999999971
 20
-549.46328999999855
 30
0.0
 11
656.25025000000153
 21
-549.46328999999855
 31
0.0
  0
LINE
  5
DF7
  8
DATA
  6
CONTINUOUS
 62
     7
 10
656.25025000000153
 20
-519.46328999999855
 30
0.0
 11
843.75024999999971
 21
-519.46328999999855
 31
0.0
  0
LINE
  5
DF8
  8
DATA
  6
CONTINUOUS
 62
     7
 10
673.7502499999996
 20
-501.96328999999952
 30
0.0
 11
731.25024999999891
 21
-501.96328999999849
 31
0.0
  0
LINE
  5
DF9
  8
DATA
  6
CONTINUOUS
 62
     7
 10
673.7502499999996
 20
-494.46328999999997
 30
0.0
 11
731.25024999999891
 21
-494.46328999999821
 31
0.0
  0
LINE
  5
DFA
  8
DATA
  6
CONTINUOUS
 62
     7
 10
673.7502499999996
 20
-484.4632899999994
 30
0.0
 11
731.25024999999891
 21
-484.4632899999994
 31
0.0
  0
TEXT
  5
DFB
  8
DATA
 62
     7
 10
710.68091010364697
 20
-544.4632899999998
 30
0.0
 40
25.78125
  1
INPUT
 41
0.8
 11
710.68091010364697
 21
-518.6820399999998
 31
0.0
 73
     3
  0
LINE
  5
DFC
  8
DATA
  6
CONTINUOUS
 62
     7
 10
656.25025000000153
 20
-389.46328999999957
 30
0.0
 11
843.75024999999971
 21
-389.46328999999957
 31
0.0
  0
LINE
  5
DFD
  8
DATA
  6
CONTINUOUS
 62
     7
 10
656.25025000000153
 20
-429.4632900000006
 30
0.0
 11
843.75024999999971
 21
-429.4632900000006
 31
0.0
  0
LINE
  5
DFE
  8
DATA
  6
CONTINUOUS
 62
     7
 10
663.75024999999926
 20
-391.96328999999992
 30
0.0
 11
741.25025000000005
 21
-391.96328999999992
 31
0.0
  0
LINE
  5
DFF
  8
DATA
  6
CONTINUOUS
 62
     7
 10
741.25025000000005
 20
-426.96328999999992
 30
0.0
 11
663.75024999999926
 21
-426.96328999999992
 31
0.0
  0
LINE
  5
E00
  8
DATA
  6
CONTINUOUS
 62
     7
 10
656.25025000000153
 20
-549.46328999999855
 30
0.0
 11
656.25025000000153
 21
-389.46328999999957
 31
0.0
  0
LINE
  5
E01
  8
DATA
  6
CONTINUOUS
 62
     7
 10
673.7502499999996
 20
-429.4632900000006
 30
0.0
 11
673.7502499999996
 21
-519.46328999999855
 31
0.0
  0
CIRCLE
  5
E02
  8
DATA
  6
CONTINUOUS
 62
     7
 10
640.00025000000096
 20
-359.46329000000009
 30
0.0
 40
13.75
  0
LINE
  5
E03
  8
DATA
  6
CONTINUOUS
 62
     7
 10
630.00025000000051
 20
-359.46329000000009
 30
0.0
 11
650.00025000000005
 21
-359.46329000000009
 31
0.0
  0
ARC
  5
E04
  8
DATA
  6
CONTINUOUS
 62
     7
 10
630.00025000000051
 20
-348.2132900000006
 30
0.0
 40
20.0
 50
90.0
 51
180.0
  0
LINE
  5
E05
  8
DATA
  6
CONTINUOUS
 62
     7
 10
640.00025000000096
 20
-369.46328999999992
 30
0.0
 11
640.00025000000096
 21
-349.46329000000031
 31
0.0
  0
LINE
  5
E06
  8
DATA
  6
CONTINUOUS
 62
     7
 10
692.50024999999835
 20
-419.4632899999998
 30
0.0
 11
692.50024999999835
 21
-399.46328999999997
 31
0.0
  0
LINE
  5
E07
  8
DATA
  6
CONTINUOUS
 62
     7
 10
692.50024999999835
 20
-399.46328999999997
 30
0.0
 11
712.50024999999835
 21
-399.46328999999997
 31
0.0
  0
LINE
  5
E08
  8
DATA
  6
CONTINUOUS
 62
     7
 10
712.50024999999835
 20
-399.46328999999997
 30
0.0
 11
712.50024999999835
 21
-419.4632899999998
 31
0.0
  0
LINE
  5
E09
  8
DATA
  6
CONTINUOUS
 62
     7
 10
712.50024999999835
 20
-419.4632899999998
 30
0.0
 11
692.50024999999835
 21
-419.4632899999998
 31
0.0
  0
LINE
  5
E0A
  8
DATA
  6
CONTINUOUS
 62
     7
 10
663.75024999999926
 20
-426.96328999999992
 30
0.0
 11
663.75024999999926
 21
-391.96328999999992
 31
0.0
  0
LINE
  5
E0B
  8
DATA
  6
CONTINUOUS
 62
     7
 10
731.25024999999891
 20
-519.46328999999855
 30
0.0
 11
731.25024999999891
 21
-429.4632900000006
 31
0.0
  0
LINE
  5
E0C
  8
DATA
  6
CONTINUOUS
 62
     7
 10
768.75025000000005
 20
-429.4632900000006
 30
0.0
 11
768.75025000000005
 21
-519.46328999999855
 31
0.0
  0
LINE
  5
E0D
  8
DATA
  6
CONTINUOUS
 62
     7
 10
826.25024999999891
 20
-519.46328999999855
 30
0.0
 11
826.25024999999891
 21
-429.4632900000006
 31
0.0
  0
LINE
  5
E0E
  8
DATA
  6
CONTINUOUS
 62
     7
 10
843.75024999999971
 20
-389.46328999999957
 30
0.0
 11
843.75024999999971
 21
-549.46328999999855
 31
0.0
  0
LINE
  5
E0F
  8
DATA
  6
CONTINUOUS
 62
     7
 10
768.75025000000005
 20
-501.96328999999952
 30
0.0
 11
826.25024999999891
 21
-501.96328999999849
 31
0.0
  0
LINE
  5
E10
  8
DATA
  6
CONTINUOUS
 62
     7
 10
768.75025000000005
 20
-494.46328999999997
 30
0.0
 11
826.25024999999891
 21
-494.46328999999821
 31
0.0
  0
LINE
  5
E11
  8
DATA
  6
CONTINUOUS
 62
     7
 10
768.75025000000005
 20
-484.4632899999994
 30
0.0
 11
826.25024999999891
 21
-484.4632899999994
 31
0.0
  0
LINE
  5
E12
  8
DATA
  6
CONTINUOUS
 62
     7
 10
758.75024999999971
 20
-391.96328999999992
 30
0.0
 11
836.25024999999891
 21
-391.96328999999992
 31
0.0
  0
LINE
  5
E13
  8
DATA
  6
CONTINUOUS
 62
     7
 10
836.25024999999891
 20
-426.96328999999992
 30
0.0
 11
758.75024999999971
 21
-426.96328999999992
 31
0.0
  0
LINE
  5
E14
  8
DATA
  6
CONTINUOUS
 62
     7
 10
741.25025000000005
 20
-391.96328999999992
 30
0.0
 11
741.25025000000005
 21
-426.96328999999992
 31
0.0
  0
LINE
  5
E15
  8
DATA
  6
CONTINUOUS
 62
     7
 10
787.50024999999891
 20
-419.4632899999998
 30
0.0
 11
787.50024999999891
 21
-399.46328999999997
 31
0.0
  0
LINE
  5
E16
  8
DATA
  6
CONTINUOUS
 62
     7
 10
787.50024999999891
 20
-399.46328999999997
 30
0.0
 11
807.50024999999869
 21
-399.46328999999997
 31
0.0
  0
LINE
  5
E17
  8
DATA
  6
CONTINUOUS
 62
     7
 10
807.50024999999869
 20
-399.46328999999997
 30
0.0
 11
807.50024999999869
 21
-419.4632899999998
 31
0.0
  0
LINE
  5
E18
  8
DATA
  6
CONTINUOUS
 62
     7
 10
807.50024999999869
 20
-419.4632899999998
 30
0.0
 11
787.50024999999891
 21
-419.4632899999998
 31
0.0
  0
LINE
  5
E19
  8
DATA
  6
CONTINUOUS
 62
     7
 10
758.75024999999971
 20
-426.96328999999992
 30
0.0
 11
758.75024999999971
 21
-391.96328999999992
 31
0.0
  0
LINE
  5
E1A
  8
DATA
  6
CONTINUOUS
 62
     7
 10
836.25024999999891
 20
-391.96328999999992
 30
0.0
 11
836.25024999999891
 21
-426.96328999999992
 31
0.0
  0
LINE
  5
E1B
  8
DATA
  6
CONTINUOUS
 62
     7
 10
850.00025000000005
 20
-359.46329000000009
 30
0.0
 11
870.00025000000051
 21
-359.46329000000009
 31
0.0
  0
LINE
  5
E1C
  8
DATA
  6
CONTINUOUS
 62
     7
 10
860.00025000000051
 20
-369.46328999999992
 30
0.0
 11
860.00025000000051
 21
-349.46329000000031
 31
0.0
  0
LINE
  5
E1D
  8
DATA
  6
CONTINUOUS
 62
     7
 10
890.00025000000005
 20
-590.71328999999844
 30
0.0
 11
890.00025000000005
 21
-348.21328999999957
 31
0.0
  0
TEXT
  5
E1E
  8
DATA
 62
     7
 10
-640.5
 20
15.475000000000099
 30
0.0
 40
25.399999999999999
  1
Invisiball取付金具(壁用)
 41
0.8
 11
-640.5
 21
40.875000000000099
 31
0.0
 73
     3
  0
TEXT
  5
E1F
  8
DATA
 62
     7
 10
-700.0
 20
-1084.563664999999
 30
0.0
 40
16.93333333333333
  1
仕様および外観は予告なく変更されることがありますので、ご了承ください。
 41
0.8
 11
-700.0
 21
-1067.6303316666649
 31
0.0
 73
     3
  0
ARC
  5
E20
  8
DATA
  6
CONTINUOUS
 62
     7
 10
-529.14832099825924
 20
-600.39722411209004
 30
0.0
 40
0.2869048033365632
 50
307.64190249757502
 51
354.2670192894235
  0
LINE
  5
E21
  8
DATA
  6
CONTINUOUS
 62
     7
 10
-536.51781922547514
 20
-595.87606875277515
 30
0.0
 11
-535.17280522547514
 21
-592.67127675277516
 31
0.0
  0
LINE
  5
E22
  8
DATA
  6
CONTINUOUS
 62
     7
 10
-536.51781922547514
 20
-595.87606875277515
 30
0.0
 11
-537.84623722547519
 21
-592.67127675277516
 31
0.0
  0
LINE
  5
E23
  8
DATA
  6
CONTINUOUS
 62
     7
 10
-526.32225922547514
 20
-601.67127675277516
 30
0.0
 11
-526.32225922547514
 21
-592.67127675277516
 31
0.0
  0
LINE
  5
E24
  8
DATA
  6
CONTINUOUS
 62
     7
 10
-524.59532122547512
 20
-592.67127675277516
 30
0.0
 11
-524.59532122547512
 21
-600.29305275277522
 31
0.0
  0
LINE
  5
E25
  8
DATA
  6
CONTINUOUS
 62
     7
 10
-534.54180622547517
 20
-592.67127675277516
 30
0.0
 11
-534.54180622547517
 21
-600.29305275277522
 31
0.0
  0
LINE
  5
E26
  8
DATA
  6
CONTINUOUS
 62
     7
 10
-532.88128822547515
 20
-592.67127675277516
 30
0.0
 11
-532.88128822547515
 21
-600.29305275277522
 31
0.0
  0
LINE
  5
E27
  8
DATA
  6
CONTINUOUS
 62
     7
 10
-532.01781922547514
 20
-592.67127675277516
 30
0.0
 11
-532.01781922547514
 21
-601.67127675277516
 31
0.0
  0
LINE
  5
E28
  8
DATA
  6
CONTINUOUS
 62
     7
 10
-530.50674622547513
 20
-593.51813175277516
 30
0.0
 11
-530.50674622547513
 21
-596.40743775277531
 31
0.0
  0
LINE
  5
E29
  8
DATA
  6
CONTINUOUS
 62
     7
 10
-527.26802422547507
 20
-596.24025375277517
 30
0.0
 11
-527.26802422547507
 21
-594.13253475277531
 31
0.0
  0
LINE
  5
E2A
  8
DATA
  6
CONTINUOUS
 62
     7
 10
-528.8628512254752
 20
-593.91666075277499
 30
0.0
 11
-528.8628512254752
 21
-596.00891775277512
 31
0.0
  0
ARC
  5
E2B
  8
DATA
  6
CONTINUOUS
 62
     7
 10
-534.87502222547505
 20
-599.36025675277517
 30
0.0
 40
2.320968082651087
 50
264.69085622153352
 51
323.99119915424069
  0
LINE
  5
E2C
  8
DATA
  6
CONTINUOUS
 62
     7
 10
-535.80379522547514
 20
-598.84839075277523
 30
0.0
 11
-535.80379522547514
 21
-600.29303475277516
 31
0.0
  0
LINE
  5
E2D
  8
DATA
  6
CONTINUOUS
 62
     7
 10
-535.80379522547514
 20
-598.84839075277523
 30
0.0
 11
-537.29826322547513
 21
-598.84839075277523
 31
0.0
  0
LINE
  5
E2E
  8
DATA
  6
CONTINUOUS
 62
     7
 10
-537.29826322547513
 20
-598.84839075277523
 30
0.0
 11
-537.29826322547513
 21
-600.29303475277516
 31
0.0
  0
ARC
  5
E2F
  8
DATA
  6
CONTINUOUS
 62
     7
 10
-535.16963722547507
 20
-600.31251075277532
 30
0.0
 40
0.6281359436180463
 50
269.71184879275222
 51
1.7759870056884191
  0
ARC
  5
E30
  8
DATA
  6
CONTINUOUS
 62
     7
 10
-535.17596422547513
 20
-600.31251075277532
 30
0.0
 40
0.6281327317136221
 50
178.22401299431701
 51
270.28815120723772
  0
ARC
  5
E31
  8
DATA
  6
CONTINUOUS
 62
     7
 10
-535.30452922547488
 20
-599.36025675277517
 30
0.0
 40
2.3209643132519551
 50
216.00880084575999
 51
275.30914377846773
  0
ARC
  5
E32
  8
DATA
  6
CONTINUOUS
 62
     7
 10
-536.24936722547511
 20
-600.24215775277526
 30
0.0
 40
1.0501201873584869
 50
182.77699544998831
 51
207.35960666714649
  0
CIRCLE
  5
E33
  8
DATA
  6
CONTINUOUS
 62
     7
 10
-536.42648722547506
 20
-597.1214617527753
 30
0.0
 40
0.8551619999999502
  0
LINE
  5
E34
  8
DATA
  6
CONTINUOUS
 62
     7
 10
-521.82225922547514
 20
-601.67126775277529
 30
0.0
 11
-526.32225922547514
 21
-601.67126775277529
 31
0.0
  0
LINE
  5
E35
  8
DATA
  6
CONTINUOUS
 62
     7
 10
-521.82225922547514
 20
-601.67126775277529
 30
0.0
 11
-521.82225922547514
 21
-598.84838175277525
 31
0.0
  0
LINE
  5
E36
  8
DATA
  6
CONTINUOUS
 62
     7
 10
-521.82225922547514
 20
-598.84839075277523
 30
0.0
 11
-523.33332322547506
 21
-598.84839075277523
 31
0.0
  0
LINE
  5
E37
  8
DATA
  6
CONTINUOUS
 62
     7
 10
-523.33332322547506
 20
-598.84839075277523
 30
0.0
 11
-523.33332322547506
 21
-600.29303475277516
 31
0.0
  0
LINE
  5
E38
  8
DATA
  6
CONTINUOUS
 62
     7
 10
-532.01781922547514
 20
-601.67126775277529
 30
0.0
 11
-528.8628512254752
 21
-601.67125875277532
 31
0.0
  0
LINE
  5
E39
  8
DATA
  6
CONTINUOUS
 62
     7
 10
-530.5067552254751
 20
-600.8244037527752
 30
0.0
 11
-529.69310122547506
 21
-600.8244037527752
 31
0.0
  0
LINE
  5
E3A
  8
DATA
  6
CONTINUOUS
 62
     7
 10
-530.50674622547513
 20
-600.8244037527752
 30
0.0
 11
-530.50674622547513
 21
-597.27089775277511
 31
0.0
  0
LINE
  5
E3B
  8
DATA
  6
CONTINUOUS
 62
     7
 10
-530.5067552254751
 20
-597.27089775277511
 30
0.0
 11
-529.69310122547506
 21
-597.27089775277511
 31
0.0
  0
LINE
  5
E3C
  8
DATA
  6
CONTINUOUS
 62
     7
 10
-528.8628512254752
 20
-600.42588375277512
 30
0.0
 11
-528.8628512254752
 21
-597.6694177527753
 31
0.0
  0
ARC
  5
E3D
  8
DATA
  6
CONTINUOUS
 62
     7
 10
-533.93018422547516
 20
-600.24215775277526
 30
0.0
 40
1.0501186930784761
 50
332.6403933328541
 51
357.22300455000669
  0
ARC
  5
E3E
  8
DATA
  6
CONTINUOUS
 62
     7
 10
-523.96116322547505
 20
-600.31251075277532
 30
0.0
 40
0.6281359436180463
 50
269.71184879275222
 51
1.7759870056884191
  0
ARC
  5
E3F
  8
DATA
  6
CONTINUOUS
 62
     7
 10
-523.96748122547513
 20
-600.31251075277532
 30
0.0
 40
0.6281327317136221
 50
178.22401299431701
 51
270.28815120725841
  0
LINE
  5
E40
  8
DATA
  6
CONTINUOUS
 62
     7
 10
-527.26875322547505
 20
-600.22661475277528
 30
0.0
 11
-527.26875322547505
 21
-597.83547675277532
 31
0.0
  0
LINE
  5
E41
  8
DATA
  6
CONTINUOUS
 62
     7
 10
-530.5067552254751
 20
-596.40743775277531
 30
0.0
 11
-529.69310122547506
 21
-596.40743775277531
 31
0.0
  0
ARC
  5
E42
  8
DATA
  6
CONTINUOUS
 62
     7
 10
-528.97725922547511
 20
-599.9627347527753
 30
0.0
 40
1.7123502705463161
 50
273.83098160911561
 51
351.13514730980262
  0
LINE
  5
E43
  8
DATA
  6
CONTINUOUS
 62
     7
 10
-534.54180622547517
 20
-592.67127675277516
 30
0.0
 11
-532.88128822547515
 21
-592.67127675277516
 31
0.0
  0
LINE
  5
E44
  8
DATA
  6
CONTINUOUS
 62
     7
 10
-537.84623722547519
 20
-592.67127675277516
 30
0.0
 11
-535.17280522547514
 21
-592.67127675277516
 31
0.0
  0
LINE
  5
E45
  8
DATA
  6
CONTINUOUS
 62
     7
 10
-526.32225922547514
 20
-592.67127675277516
 30
0.0
 11
-524.59532122547512
 21
-592.67127675277516
 31
0.0
  0
LINE
  5
E46
  8
DATA
  6
CONTINUOUS
 62
     7
 10
-532.01781922547514
 20
-592.67127675277516
 30
0.0
 11
-528.84550811014321
 21
-592.67128403714162
 31
0.0
  0
LINE
  5
E47
  8
DATA
  6
CONTINUOUS
 62
     7
 10
-530.5067552254751
 20
-593.51814075277525
 30
0.0
 11
-529.69310122547506
 21
-593.51814075277525
 31
0.0
  0
ARC
  5
E48
  8
DATA
  6
CONTINUOUS
 62
     7
 10
-528.96018622547513
 20
-594.37719075277528
 30
0.0
 40
1.7097569396204131
 50
8.2269238590143416
 51
86.154126692156012
  0
ARC
  5
E49
  8
DATA
  6
CONTINUOUS
 62
     7
 10
-529.68349330913225
 20
-599.24608458824684
 30
0.0
 40
1.5783484080435359
 50
269.65121993761642
 51
282.82648280687232
  0
ARC
  5
E4A
  8
DATA
  6
CONTINUOUS
 62
     7
 10
-529.50621980075505
 20
-599.91337903287956
 30
0.0
 40
0.8886941133238737
 50
281.23310362265948
 51
306.8620088940645
  0
ARC
  5
E4B
  8
DATA
  6
CONTINUOUS
 62
     7
 10
-529.14832099825924
 20
-597.69807739346049
 30
0.0
 40
0.2869048033365464
 50
5.7329807106216624
 51
52.358097502424982
  0
ARC
  5
E4C
  8
DATA
  6
CONTINUOUS
 62
     7
 10
-529.68349330913225
 20
-598.84921691730335
 30
0.0
 40
1.5783484080435759
 50
77.173517193127552
 51
90.348780062383611
  0
ARC
  5
E4D
  8
DATA
  6
CONTINUOUS
 62
     7
 10
-529.50621980075505
 20
-598.18192247267086
 30
0.0
 40
0.8886941133239892
 50
53.137991105939903
 51
78.766896377341695
  0
ARC
  5
E4E
  8
DATA
  6
CONTINUOUS
 62
     7
 10
-528.13966522547526
 20
-597.89434575277517
 30
0.0
 40
0.8728993475224683
 50
3.8670063598188751
 51
88.361634567895194
  0
ARC
  5
E4F
  8
DATA
  6
CONTINUOUS
 62
     7
 10
-528.14046622547505
 20
-596.14841775277523
 30
0.0
 40
0.8737667459528111
 50
271.6892821046481
 51
356.078282982654
  0
ARC
  5
E50
  8
DATA
  6
CONTINUOUS
 62
     7
 10
-529.14832099825924
 20
-595.9802581120897
 30
0.0
 40
0.2869048033366531
 50
307.6419024975612
 51
354.26701928938058
  0
ARC
  5
E51
  8
DATA
  6
CONTINUOUS
 62
     7
 10
-529.68349330913225
 20
-594.82911858824696
 30
0.0
 40
1.5783484080435359
 50
269.65121993761642
 51
282.82648280687232
  0
ARC
  5
E52
  8
DATA
  6
CONTINUOUS
 62
     7
 10
-529.50621980075505
 20
-595.49641303287967
 30
0.0
 40
0.8886941133238737
 50
281.23310362265948
 51
306.8620088940645
  0
ARC
  5
E53
  8
DATA
  6
CONTINUOUS
 62
     7
 10
-529.14832099825924
 20
-593.94532039346052
 30
0.0
 40
0.2869048033365464
 50
5.7329807106216624
 51
52.358097502456808
  0
ARC
  5
E54
  8
DATA
  6
CONTINUOUS
 62
     7
 10
-529.68349330913225
 20
-595.09645991730326
 30
0.0
 40
1.5783484080435759
 50
77.173517193127552
 51
90.348780062383611
  0
ARC
  5
E55
  8
DATA
  6
CONTINUOUS
 62
     7
 10
-529.50621980075505
 20
-594.42916547267077
 30
0.0
 40
0.8886941133238984
 50
53.137991105935491
 51
78.766896377340274
  0
ARC
  5
E56
  8
DATA
  6
CONTINUOUS
 62
     7
 10
270.51761933449433
 20
-678.29917052828614
 30
0.0
 40
0.1912698688910721
 50
307.64190249756803
 51
354.26701928940167
  0
LINE
  5
E57
  8
DATA
  6
CONTINUOUS
 62
     7
 10
265.60462051635022
 20
-675.28506695540966
 30
0.0
 11
266.50129651635018
 21
-673.14853895540955
 31
0.0
  0
LINE
  5
E58
  8
DATA
  6
CONTINUOUS
 62
     7
 10
265.60462051635022
 20
-675.28506695540966
 30
0.0
 11
264.71900851635041
 21
-673.14853895540955
 31
0.0
  0
LINE
  5
E59
  8
DATA
  6
CONTINUOUS
 62
     7
 10
272.40166051635032
 20
-679.14853895540966
 30
0.0
 11
272.40166051635032
 21
-673.14853895540955
 31
0.0
  0
LINE
  5
E5A
  8
DATA
  6
CONTINUOUS
 62
     7
 10
273.55295251635027
 20
-673.14853895540955
 30
0.0
 11
273.55295251635027
 21
-678.22972295540956
 31
0.0
  0
LINE
  5
E5B
  8
DATA
  6
CONTINUOUS
 62
     7
 10
266.92196251635039
 20
-673.14853895540955
 30
0.0
 11
266.92196251635039
 21
-678.22972295540956
 31
0.0
  0
LINE
  5
E5C
  8
DATA
  6
CONTINUOUS
 62
     7
 10
268.02897451635022
 20
-673.14853895540955
 30
0.0
 11
268.02897451635022
 21
-678.22972295540956
 31
0.0
  0
LINE
  5
E5D
  8
DATA
  6
CONTINUOUS
 62
     7
 10
268.60462051635039
 20
-673.14853895540955
 30
0.0
 11
268.60462051635039
 21
-679.14853895540966
 31
0.0
  0
LINE
  5
E5E
  8
DATA
  6
CONTINUOUS
 62
     7
 10
269.61200251635017
 20
-673.71310895540967
 30
0.0
 11
269.61200251635017
 21
-675.63931295540965
 31
0.0
  0
LINE
  5
E5F
  8
DATA
  6
CONTINUOUS
 62
     7
 10
271.77115051635042
 20
-675.52785695540956
 30
0.0
 11
271.77115051635042
 21
-674.12271095540939
 31
0.0
  0
LINE
  5
E60
  8
DATA
  6
CONTINUOUS
 62
     7
 10
270.7079325163503
 20
-673.97879495540963
 30
0.0
 11
270.7079325163503
 21
-675.37363295540956
 31
0.0
  0
ARC
  5
E61
  8
DATA
  6
CONTINUOUS
 62
     7
 10
266.69981851635032
 20
-677.6078589554096
 30
0.0
 40
1.547312055100684
 50
264.69085622153437
 51
323.99119915424308
  0
LINE
  5
E62
  8
DATA
  6
CONTINUOUS
 62
     7
 10
266.0806365163503
 20
-677.26661495540964
 30
0.0
 11
266.0806365163503
 21
-678.22971095540959
 31
0.0
  0
LINE
  5
E63
  8
DATA
  6
CONTINUOUS
 62
     7
 10
266.0806365163503
 20
-677.26661495540964
 30
0.0
 11
265.08432451635042
 21
-677.26661495540964
 31
0.0
  0
LINE
  5
E64
  8
DATA
  6
CONTINUOUS
 62
     7
 10
265.08432451635042
 20
-677.26661495540964
 30
0.0
 11
265.08432451635042
 21
-678.22971095540959
 31
0.0
  0
ARC
  5
E65
  8
DATA
  6
CONTINUOUS
 62
     7
 10
266.50340851635042
 20
-678.24269495540955
 30
0.0
 40
0.41875729574544
 50
269.71184879275108
 51
1.77598700568859
  0
ARC
  5
E66
  8
DATA
  6
CONTINUOUS
 62
     7
 10
266.49919051635032
 20
-678.24269495540955
 30
0.0
 40
0.4187551544757385
 50
178.22401299431701
 51
270.28815120725079
  0
ARC
  5
E67
  8
DATA
  6
CONTINUOUS
 62
     7
 10
266.41348051635032
 20
-677.6078589554096
 30
0.0
 40
1.547309542167933
 50
216.00880084575761
 51
275.30914377846437
  0
ARC
  5
E68
  8
DATA
  6
CONTINUOUS
 62
     7
 10
265.78358851635022
 20
-678.19579295540962
 30
0.0
 40
0.7000801249057274
 50
182.77699544999109
 51
207.3596066671434
  0
CIRCLE
  5
E69
  8
DATA
  6
CONTINUOUS
 62
     7
 10
265.66550851635043
 20
-676.11532895540961
 30
0.0
 40
0.5701079999999763
  0
LINE
  5
E6A
  8
DATA
  6
CONTINUOUS
 62
     7
 10
275.40166051635032
 20
-679.14853295540956
 30
0.0
 11
272.40166051635032
 21
-679.14853295540956
 31
0.0
  0
LINE
  5
E6B
  8
DATA
  6
CONTINUOUS
 62
     7
 10
275.40166051635032
 20
-679.14853295540956
 30
0.0
 11
275.40166051635032
 21
-677.26660895540965
 31
0.0
  0
LINE
  5
E6C
  8
DATA
  6
CONTINUOUS
 62
     7
 10
275.40166051635032
 20
-677.26661495540964
 30
0.0
 11
274.3942845163503
 21
-677.26661495540964
 31
0.0
  0
LINE
  5
E6D
  8
DATA
  6
CONTINUOUS
 62
     7
 10
274.3942845163503
 20
-677.26661495540964
 30
0.0
 11
274.3942845163503
 21
-678.22971095540959
 31
0.0
  0
LINE
  5
E6E
  8
DATA
  6
CONTINUOUS
 62
     7
 10
268.60462051635039
 20
-679.14853295540956
 30
0.0
 11
270.7079325163503
 21
-679.14852695540958
 31
0.0
  0
LINE
  5
E6F
  8
DATA
  6
CONTINUOUS
 62
     7
 10
269.61199651635042
 20
-678.58395695540935
 30
0.0
 11
270.15443251635043
 21
-678.58395695540935
 31
0.0
  0
LINE
  5
E70
  8
DATA
  6
CONTINUOUS
 62
     7
 10
269.61200251635017
 20
-678.58395695540935
 30
0.0
 11
269.61200251635017
 21
-676.21495295540956
 31
0.0
  0
LINE
  5
E71
  8
DATA
  6
CONTINUOUS
 62
     7
 10
269.61199651635042
 20
-676.21495295540956
 30
0.0
 11
270.15443251635043
 21
-676.21495295540956
 31
0.0
  0
LINE
  5
E72
  8
DATA
  6
CONTINUOUS
 62
     7
 10
270.7079325163503
 20
-678.3182769554096
 30
0.0
 11
270.7079325163503
 21
-676.48063295540942
 31
0.0
  0
ARC
  5
E73
  8
DATA
  6
CONTINUOUS
 62
     7
 10
267.32971051635042
 20
-678.19579295540962
 30
0.0
 40
0.7000791287190272
 50
332.64039333285223
 51
357.22300455000351
  0
ARC
  5
E74
  8
DATA
  6
CONTINUOUS
 62
     7
 10
273.9757245163504
 20
-678.24269495540955
 30
0.0
 40
0.41875729574544
 50
269.71184879275108
 51
1.77598700568859
  0
ARC
  5
E75
  8
DATA
  6
CONTINUOUS
 62
     7
 10
273.97151251635029
 20
-678.24269495540955
 30
0.0
 40
0.4187551544757101
 50
178.22401299431681
 51
270.28815120725079
  0
LINE
  5
E76
  8
DATA
  6
CONTINUOUS
 62
     7
 10
271.77066451635039
 20
-678.18543095540952
 30
0.0
 11
271.77066451635039
 21
-676.59133895540947
 31
0.0
  0
LINE
  5
E77
  8
DATA
  6
CONTINUOUS
 62
     7
 10
269.61199651635042
 20
-675.63931295540965
 30
0.0
 11
270.15443251635043
 21
-675.63931295540965
 31
0.0
  0
ARC
  5
E78
  8
DATA
  6
CONTINUOUS
 62
     7
 10
270.63166051635028
 20
-678.00951095540961
 30
0.0
 40
1.1415668470308371
 50
273.83098160911442
 51
351.13514730980211
  0
LINE
  5
E79
  8
DATA
  6
CONTINUOUS
 62
     7
 10
266.92196251635039
 20
-673.14853895540955
 30
0.0
 11
268.02897451635022
 21
-673.14853895540955
 31
0.0
  0
LINE
  5
E7A
  8
DATA
  6
CONTINUOUS
 62
     7
 10
264.71900851635041
 20
-673.14853895540955
 30
0.0
 11
266.50129651635018
 21
-673.14853895540955
 31
0.0
  0
LINE
  5
E7B
  8
DATA
  6
CONTINUOUS
 62
     7
 10
272.40166051635032
 20
-673.14853895540955
 30
0.0
 11
273.55295251635027
 21
-673.14853895540955
 31
0.0
  0
LINE
  5
E7C
  8
DATA
  6
CONTINUOUS
 62
     7
 10
268.60462051635039
 20
-673.14853895540955
 30
0.0
 11
270.71949459323838
 21
-673.14854381165367
 31
0.0
  0
LINE
  5
E7D
  8
DATA
  6
CONTINUOUS
 62
     7
 10
269.61199651635042
 20
-673.71311495540965
 30
0.0
 11
270.15443251635043
 21
-673.71311495540965
 31
0.0
  0
ARC
  5
E7E
  8
DATA
  6
CONTINUOUS
 62
     7
 10
270.64304251635042
 20
-674.28581495540959
 30
0.0
 40
1.1398379597469031
 50
8.2269238590146152
 51
86.154126692153383
  0
ARC
  5
E7F
  8
DATA
  6
CONTINUOUS
 62
     7
 10
270.16083779391232
 20
-677.53174417905745
 30
0.0
 40
1.0522322720289861
 50
269.65121993761778
 51
282.82648280687317
  0
ARC
  5
E80
  8
DATA
  6
CONTINUOUS
 62
     7
 10
270.2790201328304
 20
-677.97660714214589
 30
0.0
 40
0.5924627422158806
 50
281.2331036226613
 51
306.86200889406081
  0
ARC
  5
E81
  8
DATA
  6
CONTINUOUS
 62
     7
 10
270.51761933449433
 20
-676.49973938253311
 30
0.0
 40
0.191269868891063
 50
5.7329807106321073
 51
52.358097502431889
  0
ARC
  5
E82
  8
DATA
  6
CONTINUOUS
 62
     7
 10
270.16083779391232
 20
-677.26716573176168
 30
0.0
 40
1.0522322720290951
 50
77.1735171931265
 51
90.348780062382076
  0
ARC
  5
E83
  8
DATA
  6
CONTINUOUS
 62
     7
 10
270.2790201328304
 20
-676.82230276867335
 30
0.0
 40
0.5924627422159512
 50
53.13799110593915
 51
78.766896377340785
  0
ARC
  5
E84
  8
DATA
  6
CONTINUOUS
 62
     7
 10
271.1900565163503
 20
-676.63058495540952
 30
0.0
 40
0.5819328983482625
 50
3.8670063598154671
 51
88.361634567897553
  0
ARC
  5
E85
  8
DATA
  6
CONTINUOUS
 62
     7
 10
271.18952251635039
 20
-675.46663295540964
 30
0.0
 40
0.5825111639684648
 50
271.68928210464742
 51
356.07828298265758
  0
ARC
  5
E86
  8
DATA
  6
CONTINUOUS
 62
     7
 10
270.51761933449433
 20
-675.3545265282861
 30
0.0
 40
0.1912698688910721
 50
307.64190249756803
 51
354.26701928940349
  0
ARC
  5
E87
  8
DATA
  6
CONTINUOUS
 62
     7
 10
270.16083779391232
 20
-674.58710017905742
 30
0.0
 40
1.0522322720289861
 50
269.65121993761778
 51
282.82648280687317
  0
ARC
  5
E88
  8
DATA
  6
CONTINUOUS
 62
     7
 10
270.2790201328304
 20
-675.03196314214586
 30
0.0
 40
0.5924627422159922
 50
281.23310362265909
 51
306.86200889406081
  0
ARC
  5
E89
  8
DATA
  6
CONTINUOUS
 62
     7
 10
270.51761933449433
 20
-673.99790138253309
 30
0.0
 40
0.1912698688910517
 50
5.7329807105982233
 51
52.358097502438639
  0
ARC
  5
E8A
  8
DATA
  6
CONTINUOUS
 62
     7
 10
270.16083779391232
 20
-674.76532773176154
 30
0.0
 40
1.0522322720290951
 50
77.1735171931265
 51
90.348780062382076
  0
ARC
  5
E8B
  8
DATA
  6
CONTINUOUS
 62
     7
 10
270.2790201328304
 20
-674.32046476867322
 30
0.0
 40
0.5924627422159512
 50
53.13799110593915
 51
78.766896377340785
  0
ENDSEC
  0
EOF
